Song name
# A B C D E F G H I J K L M N O P Q R S T U V W X Y Z

Evans Blue - Say It tab

Say It - Evans Blue
Tabbed by: TontN


D ||---------------------------------------------------|
A ||---------------------------------------------------|
F ||o--------------------------------------------------|
C ||o5-----5-----x--x-----x--5-----5-----x--x-----x----|
G ||-5-----5-----x--x-----x--5-----5-----x--x-----x----|
C ||-5-----5-----x--x-----x--5-----5-----x--x-----x----|


----------------------------------------------------|
----------------------------------------------------|
----------------------------------------------------|
--5-----5-----x--x-----x--5-----5-----x--x-----x----|
--5-----5-----x--x-----x--5-----5-----x--x-----x----|
--5-----5-----x--x-----x--5-----5-----x--x-----x----|


----------------------------------------------------|
----------------------------------------------------|
----------------------------------------------------|
--1-----1-----x--x-----x--1-----1-----x--x-----x----|
--1-----1-----x--x-----x--1-----1-----x--x-----x----|
--1-----1-----x--x-----x--1-----1-----x--x-----x----|


---------------------------------------------------||-------------|
---------------------------------------------------||-----6-------|
--------------------------------------------------o||-----5-------|
--1-----1-----x--x-----x--1-----1-----x--x-----x--o||--3--3-------|
--1-----1-----x--x-----x--1-----1-----x--x-----x---||--3--3-------|
--1-----1-----x--x-----x--1-----1-----x--x-----x---||--3--3-------|


-------------------------|-------------|-------||
-------------------------|-----6-------|-------||
-------------------------|-----5-------|-------||
--1--------1-------------|--3--3-------|--1----||
--1--------1-------------|--3--3-------|--1----||
--1--------1-------------|--3--3-------|--1----||


---------------------------------------------------|
---------------------------------------------------|
o--------------------------------------------------|
o5--5--5--5--5--5--5--5--5--5--5--5--5--5--5--5----|
-5--5--5--5--5--5--5--5--5--5--5--5--5--5--5--5----|
-5--5--5--5--5--5--5--5--5--5--5--5--5--5--5--5----|


----------------------------------------------------|
----------------------------------------------------|
----------------------------------------------------|
--1--1--1--1--1--1--1--1--1--1--1--1--1--1--1--1----|
--1--1--1--1--1--1--1--1--1--1--1--1--1--1--1--1----|
--1--1--1--1--1--1--1--1--1--1--1--1--1--1--1--1----|


----------------------------------------------------|
----------------------------------------------------|
--3--3--3--3--3--3--3--3--3--3--3--3--3--3--3--3----|
--3--3--3--3--3--3--3--3--3--3--3--3--3--3--3--3----|
--1--1--1--1--1--1--1--1--1--1--1--1--1--1--1--1----|
----------------------------------------------------|


---------------------------------------------------------|||
---------------------------------------------------------|||
--------------------------------------------------------o|||
--3--3--3--3--3--3--3--3--3--3--3--3--3-----4-----------o|||
--3--3--3--3--3--3--3--3--3--3--3--3--3-----4------------|||
--3--3--3--3--3--3--3--3--3--3--3--3--3h----4------------|||


---------------------------------------------------|
---------------------------------------------------|
o12-12-12-12-12-12-12-12---------------------------|
o------------------------12-12-12-12-12-12-12-12---|
---------------------------------------------------|
---------------------------------------------------|


---------------------------------------------------|||
---------------------------------------------------|||
--------------------------15-15-15-15-14-14-14-14-o|||
--13-13-13-13-13-13-13-13-------------------------o|||
---------------------------------------------------|||
---------------------------------------------------|||


---------------------------------------------------|
---------------------------------------------------|
o--------------------------------------------------|
o5--5--5--5--5--5--5--5--0--0--0--0--0--0--0--0----|
-5--5--5--5--5--5--5--5--0--0--0--0--0--0--0--0----|
-5--5--5--5--5--5--5--5--0--0--0--0--0--0--0--0----|


---------------------------------------------------|||
---------------------------------------------------|||
--------------------------3--3--3--3--2--2--2--2--o|||
--1--1--1--1--1--1--1--1--3--3--3--3--2--2--2--2--o|||
--1--1--1--1--1--1--1--1--1--1--1--1--0--0--0--0---|||
--1--1--1--1--1--1--1--1---------------------------|||

My First Tab, Enjoy!
Tap to rate this tab
# A B C D E F G H I J K L M N O P Q R S T U V W X Y Z