Song name
# A B C D E F G H I J K L M N O P Q R S T U V W X Y Z

Eve 6 - Promise tab

Help us improve GuitareTab! Take a short survey!
Eve 6 - Promise

Intro:
E-----------------------------------|
B-----------------------------------|
G--4-2-4-2-4-2-4-2-4-2-4-2-4-2-4-2--|
D--2-2-2-0-0-0-0-0-2-2-2-0-0-0-0-0--|
A--0-0-0----------------------------|
E-----------------------------------|

Pre-Verse:
E-----------------------------------|
B-----------------------------------|
G--4-2-4-2-4-2-4-2-4-2-4-2-4-2-4-2--|
D--2-2-2-0-0-0-0-0-2-2-2-0-0-0-0-0--|  x3
A--0-0-0----------------------------|
E-----------------------------------|

E-----------------------------------|
B------------------------------0----|
G--4-2-4-2-4-2-4-2-4-2-4-2-------2--|
D--2-2-2-0-0-0-0-0-2-2-2-0---4------|
A--0-0-0----------------------------|
E-----------------------------------|
   PM* * * * * * * * * *

Verse:
Guitar1:
E--------------------------------------------------------------|
B--------------------------------------------------------------|
G--4--4-2-4-2-4-2-2--4-2-4-2-4-2-4--4-2-4-2-4-2-4--4-2-6-2-4-2-|
D--2--2-0-0-0-0-0-0--2-0-0-0-0-0-2--2-0-0-0-0-0-2--2-0-0-0-0-0-|
A--0--0--------------------------0--0--------------------------|
E--------------------------------------------------------------|
   PM * * * * * * *  * * * * * * *  * * * * * * *  * * * * * *
						     Distortion on
E---------------------------------------------0----3-3-3-3-3-3-|
B---------------------------------------------0----3-3-3-3-3-3-|
G--4--4-2-4-2-4-2-4--4-2-4-2-4-0-4--4-2-4-2-4-1----0-0-0-0-0-0-|
D--2--2-2-2-2-0-0-2--2-0-2-0-0-0-2--2-2-0-0-0------0-0-0-0-0-0-|
A--0-----------------------------------------------x-x-x-x-x-x-|
E--------------------------------------------------3-3-3-3-3-3-|
   PM * * * * * * *  * * * * * * *  * * * * *

Guitar2:
E------------------------------------------------------------------|
B------------------------------------------------------------------|
G--------2-2-2-2-2-4-4-4-2-2-2-2-2-------2-2-2-2-2-4-4-4-2-2-2-2-2-|
D--2-2-2-0-0-0-0-0-2-2-2-0-0-0-0-0-2-2-2-0-0-0-0-0-2-2-2-0-0-0-0-0-|
A--0-0-0---------------------------0-0-0---------------------------|
E------------------------------------------------------------------|
   PM* * * * * * * * * * * * * * * * * * * * * * * * * * *
							Distortion on
E-----------------------------------------------------3-3-3-3-3-3-|
B------------------------------------------------0----3-3-3-3-3-3-|
G------------------------2-2-2-2-2-2-2-2-2-2-2-2-4----0-0-0-0-0-0-|
D--2-2-2-2-2-2-2-2-------0-0-0-0-0-x-x-x-x-0-0-0-2----0-0-0-0-0-0-|
A--0-0-0-0-0-0-2-0-4-2-4-----------4-4-4-4-------2----x-x-x-x-x-x-|
E------------------0-0-0-------------------------0----3-3-3-3-3-3-|
   PM* * * * * * * * * * * * * * * * * * * * * *

Chorus:
Guitars 1 and 2:
E----------------------------------------|
B----------------------------------------|
G-----------7-7-xxxx---------------------|
D-7-7-xxxx--7-7-xxxx--2-2-xxxx--2-2-xxxx-| x2
A-7-7-xxxx--5-5-xxxx--2-2-xxxx--2-2-xxxx-|
E-5-5-xxxx------------0-0-xxxx--0-0-xxxx-|

E--------------------------------------------------------------------|
B--------------------------------------------------------------------|
G-----------7-7-xxxx----------------------------7-7-7-7----------0---|
D-7-7-xxxx--7-7-xxxx--2-2-xxxx--4-4-4-4-7-7-7-7-7-7-7-7-2----------2-|
A-7-7-xxxx--5-5-xxxx--2-2-xxxx--4-4-4-4-7-7-7-7-5-5-5-5-2------4-----|
E-5-5-xxxx------------0-0-xxxx--2-2-2-2-5-5-5-5---------0------------|

Play Verse
Play Chorus

Interlude:
E------5-------5-------5-------5-------5-------5-------5-------5---|
B----5-------5---5---5-------5---5---5-------5---5---5-------5---5-|
G------------------------------------------------------------------|
D--4-----0---------2-----0---------4-----0---------2---------------|
A--------------------------------------------------------0---------|
E------------------------------------------------------------------|

Bridge:
Guitar2: x3
E------5-------5-------5-------5---|
B----5-------5---5---5-------5---5-|
G----------------------------------|
D--4-----0---------2-----0---------|
A----------------------------------|
E----------------------------------|

Guitar1: comes is on get it?; x5
E----------|
B----------|
G--4-2-4-2-|
D----------|
A----------|
E----------|

Pre-Chorus:
Guitar2:
E------5-------5---5-5-5-5-5-5-5-5-5-5-5-5-5-5-5-5-5-5-5-5-5-5-5-5-5-5-5-5-5-5--|
B----5-------5---5-5-5-5-5-5-5-5-5-5-5-5-5-5-5-5-5-5-5-5-5-5-5-5-5-5-5-5-5-5-5--|
G-------------------------------------------------------------------------------|
D--4-----0----------------------------------------------------------------------|
A-------------------------------------------------------------------------------|
E-------------------------------------------------------------------------------|
                   PM* * * * * * * * * * * * * * * * * * *

E------5555-----5555-----5555-----5555-----5555-----5555-----5555-----4444-|
B------5555-----5555-----5555-----5555-----5555-----5555-----5555-----5555-|
G--------------------------------------------------------------------------|
D--------------------------------------------------------------------------|
A--------------------------------------------------------------------------|
E--------------------------------------------------------------------------|

Guitar1:
E----------------------------------------------------------------------------------|
B----------------------------------------------------------------------------------|
G--4-2-4-2-4-2-4-2---------------------------------9-9-9-9-9-9-9-9-9-9-9-9-9-9-9-9-|
D--------------------------------------------------9-9-9-9-9-9-9-9-9-9-9-9-9-9-9-9-|
A------------------0-0-0-0-0-0-0-0-0-0-0-0-0-0-0-0-7-7-7-7-7-7-7-7-7-7-7-7-7-7-7-7-|
E--------------------------------------------------0-0-0-0-0-0-0-0-0-0-0-0-0-0-0-0-|
		    PM* * * * * * * * * * * * * * *

E--------------------------------------------------------------------------|
B--------------------------------------------------------------------------|
G--------------------------------------------------------------------------|
D--------------------------------------------------------------------------|
A-----------5-5---------------------------------5-5------------------------|
E--5-5---------------0-0------0-0------5-5---------------0-0------0-0------|

Chorus3:
Guitars 1 and 2:
E----------------------------------------|
B----------------------------------------|
G-----------7-7-xxxx---------------------|
D-7-7-xxxx--7-7-xxxx--2-2-xxxx--2-2-xxxx-| x2
A-7-7-xxxx--5-5-xxxx--2-2-xxxx--2-2-xxxx-|
E-5-5-xxxx------------0-0-xxxx--0-0-xxxx-|

E---------------------------------------|
B---------------------------------------|
G-----------7-7-xxxx--------------------|
D-7-7-xxxx--7-7-xxxx--2-2-xxxx--4-4-4-4-|
A-7-7-xxxx--5-5-xxxx--2-2-xxxx--4-4-4-4-|
E-5-5-xxxx------------0-0-xxxx--2-2-2-2-|

Guitar1:
E--------------------------------------|
B--------------------------------------|
G--------------------------------------|
D--------------------------------------|
A-----------5-5------------------------|
E--5-5---------------0-0------0-0------|

Guitar2:
E------5555-----5555-----5555-----4444-|
B------5555-----5555-----5555-----5555-|
G--------------------------------------|
D--------------------------------------|
A--------------------------------------|
E--------------------------------------|

Outro:
Guitar1:
E--------------------------------------------------------------------------|
B--------------------------------------------------------------------------|
G--------------------------------------------------------------------------|
D--------------------------------------------------------------------------|
A-----------5-5---------------5-5---------------5-5------------------------|
E--5-5---------------0-0---------------5-5---------------0-0------0-0------|

E--------------------------------------------------------|
B--------------------------------------------------------|
G--------------------------------------------------------|
D--------------------------------------------------------|
A-----------5-5---------------2-2---------------5-5------|
E--5-5---------------0-0---------------5-5---------------|

Guitar2: x14
E----------|
B----------|
G--4-2-4-2-|
D----------|
A----------|
E----------|

Guitars 1 and 2:
E------------------------------------|
B------------------------------------|
G------------------------------------|
D--2-2---2---2-2---2-----2-2-2-2-----|
A--2-2---2---2-2---2-----2-2-2-2-----|
E--0-0---0---0-0---0-----0-0-0-0-----|


Enjoy! Comments and ratings appreciated.

Courtesy of PBizzle.
Related for Promise tab