Song name
# A B C D E F G H I J K L M N O P Q R S T U V W X Y Z

Evergreen Terrace - Kids Arent Alright tab

-----------------------------------------------------------------
The Kids Arent Alright - Evergreen Terrace
-----------------------------------------------------------------
Tabbed by: akbal260
Email: aguilar_abraham260@hotmail.com

i found another tab for this song but its all wrong .. 
this one isnt perfect but its much better


Tuning: Drop D

intro :
e|---------------------------------------------------------------|
B|---------------------------------------------------------------|
G|---------------------------------------------------------------|
D|--------9--9--8--8--8--8h9-------9-9-8-8-8-8h9-----------------|
A|--11-11-11-11-11-11-11-11----7-7-7-7-7-7-7-7-------------------|
D|---------------------------------------------------------------|

e|---------------------------------------------------------------|
B|---------------------------------------------------------------|
G|---------------------------------------------------------------|
D|------9-9-8-8-8-8h9----11-11-9-8-8-8h9-------------------------|
A|--9-9-9-9-9-9-9--------9--9--9-9-9-9---------------------------|
D|---------------------------------------------------------------|

e|---------------------------------------------------------------|
B|---------------------------------------------------------------|
G|--8~------4~------11~-----6~-----------------------------------|
D|--6~------2~------9~------4~-----------------------------------|
A|--6~------2~------9~------4~-----------------------------------|
D|--6~------2~------9-------4~-----------------------------------|

e|---------------------------------------------------------------|
B|---------------------------------------------------------------|
G|---------------------------------------------------------------|
D|---------------------------------------------------------------|
A|---------------------------------------------------------------|
D|--6-6-8-9-2-2-8-9-4444-6666-8888-9999-11111111-9999-8888-9999--|
this part is played many times in the song

verse/chorus:
the chorus is the same as the verse but without palm mute
e|---------------------------------------------|-----|-----------|
B|---------------------------------------------|-----|-----------|
G|--8-8-8-8-8--4-4-4-4-4--4-4-4-4-4--6-6-6-6-6-|-6-7-|-----------|
D|--6-6-6-6-6--2-2-2-2-2--4-4-4-4-4--4-4-4-4-4-|-4-5-|-----------|
A|--6-6-6-6-6--2-2-2-2-2--2-2-2-2-2--4-4-4-4-4-|-4-5-|-----------|
D|--6-6-6-6-6--2-2-2-2-2-------------4-4-4-4-4-|-4-5-|-----------|
     |-------|  |-------|  |-------|  |-------|

outro:
e|--4-2-4-2-4-2-4-2----------------------------------------------|
B|---------------------------------------------------------------|
G|---------------------------------------------------------------|
D|---------------------------------------------------------------|
A|---------------------------------------------------------------|
D|---------------------------------------------------------------|
Tap to rate this tab
 
# A B C D E F G H I J K L M N O P Q R S T U V W X Y Z