Song name
# A B C D E F G H I J K L M N O P Q R S T U V W X Y Z

Every Time I Die - Werewolf tab

===============================================================================
Band: Every Time I Die
Song: We’rewolf
Album: The Big Dirty (2007)
Tuning: Dropped D
Tabbed by: kdcisgod (kdcisgod@cox.net)
Notes: This tab should be like 100% correct

Verse 1:
E|------------------|----------------|
B|------------------|----------------|
G|------------------|--------------8-|
D|------------------|--------------8-|
A|------------------|--------------6-|
D|5---2-0-1-2-1-0-5-|--2-0-1-2-1-0---|

E|--------------0-------|
B|----------------0-----|
G|------------------3---| Four
D|--8-8-8-8-8-8---------| Times
A|--8-8-8-8-8-8---------|
D|--8-8-8-8-8-8---------|

E|----------------|
B|----------------|
G|----------------| Four
D|----------------| Times
A|4---1---0-1-4---|
D|------0-------0-|
PM      .       .

Pre-chorus:
[wi-ld.....king-dom]
E|------------------------|
B|------------------------|
G|------------------------|
D|8---8-------8---8-------|
A|8---8-------8---8-------|
D|8---8-------8---8-------|

E|--------------------------------|
B|--------------------------------|
G|--------------------------------| Four
D|8-------------------------------| Times
A|6---8-8-8-8-8-8-8-8-8-8-8-8-8-8-|
D|----8-8-8-8-8-8-8-8-8-8-8-8-8-8-|
PM    . . . . . . . . . . . . . .

Chorus:
E|-----------------------0-------|
B|-------------------------0-----|
G|---------------------------3---| Three
D|5-------2-------1--------------| Times
A|5-------2-------1--------------|
D|5-------2-------1--------------|

E|----------------|
B|----------------|
G|----------------|
D|5-------2-------|
A|5-------2-------|
D|5-------2-------|

E|------------------------------------------|
B|----------------------------------3-------|
G|----------------------------------2-------|
D|1---1-1-1-1-1-1-1-1-1-1-1-1-1-1-1-0-------|
A|1---1-1-1-1-1-1-1-1-1-1-1-1-1-1-1-0-------|
D|1---1-1-1-1-1-1-1-1-1-1-1-1-1-1-1-0-------|

E|----------------------------|
B|----------------------------|
G|----------------------------|
D|8---8---------8---8---------|
A|6---8---------6---8---------|
D|----8-------------8---------|

Verse 2:
E|------------------|----------------|
B|------------------|----------------|
G|------------------|--------------8-|
D|------------------|--------------8-|
A|------------------|--------------6-|
D|5---2-0-1-2-1-0-5-|--2-0-1-2-1-0---|

E|--------------0-------|
B|----------------0-----|
G|------------------3---| Four
D|--8-8-8-8-8-8---------| Times
A|--8-8-8-8-8-8---------|
D|--8-8-8-8-8-8---------|

E|----------------|
B|----------------|
G|----------------| Four
D|----------------| Times
A|4---1---0-1-4---|
D|------0-------0-|
PM      .       .
Pre-chorus:
[wi-ld.....king-dom]
E|------------------------|
B|------------------------|
G|------------------------|
D|8---8-------8---8-------|
A|8---8-------8---8-------|
D|8---8-------8---8-------|

E|--------------------------------|
B|--------------------------------|
G|--------------------------------|
D|8-------------------------------|
A|6---8-8-8-8-8-8-8-8-8-8-8-8-8-8-|
D|----8-8-8-8-8-8-8-8-8-8-8-8-8-8-|
PM    . . . . . . . . . . . . . .

E|--------------------------------|
B|--------------------------------|
G|--------------------------------|
D|8---------------------------8---|
A|6---8-8-8-8-8-8-8-8-8-8-8-8-6-8-|
D|----8-8-8-8-8-8-8-8-8-8-8-8---8-|
PM    . . . . . . . . . . . .   .

E|--------------------------------|
B|--------------------------------|
G|--------------------------------| Play this
D|8-------------------------------| line twice
A|6---8-8-8-8-8-8-8-8-8-8-8-8-8-8-|
D|----8-8-8-8-8-8-8-8-8-8-8-8-8-8-|
PM    . . . . . . . . . . . . . .


Chorus:
E|-----------------------0-------|
B|-------------------------0-----|
G|---------------------------3---| Three
D|5-------2-------1--------------| Times
A|5-------2-------1--------------|
D|5-------2-------1--------------|

E|----------------|
B|----------------|
G|----------------|
D|5-------2-------|
A|5-------2-------|
D|5-------2-------|

E|------------------------------------------|
B|----------------------------------3-------|
G|----------------------------------2-------|
D|1---1-1-1-1-1-1-1-1-1-1-1-1-1-1-1-0-------|
A|1---1-1-1-1-1-1-1-1-1-1-1-1-1-1-1-0-------|
D|1---1-1-1-1-1-1-1-1-1-1-1-1-1-1-1-0-------|

Breakdown type thing:
WHICH ONE OF YOU MOTHERFUCKERS
IS GONNA GIVE IT ALL HEART, ALL HEART
E|------------------------------------------------|
B|------------------------------------------------|
G|------------------------------------------------|
D|------------------2-----------------------2-----|
A|5-2-2-2-2-2-0-2-5---5-2-5-2-2-2-2-2-0-2-5---5-2-|
D|------------------------------------------------|

E|----------------------------------------------|
B|----------------------------------------------|
G|----------------------------------------------|
D|------------------2-----5-2-0-2---------------|
A|5-2-2-2-2-2-0-2-5---5-2---------0-2-5-0-1-2---|
D|----------------------------------------------|

E|x-x-x-x-x-x-x-x-x-x-0-0-|
B|x-x-x-x-x-x-x-x-x-x-0-0-|
G|x-x-x-x-x-x-x-x-x-x-0-0-|
D|x-x-x-x-x-x-x-x-x-x-0-0-|
A|x-x-x-x-x-x-x-x-x-x-----|
D|x-x-x-x-x-x-x-x-x-x-----|

E|------------------------------------------------|
B|------------------------------------------------|
G|------------------------------------------------|
D|------------------2-----------------------2-----|
A|5-2-2-2-2-2-0-2-5---5-2-5-2-2-2-2-2-0-2-5---5-2-|
D|------------------------------------------------|

E|----------------------------------------------|
B|----------------------------------------------|
G|----------------------------------------------|
D|------------------2-----5-2-0-2---------------|
A|5-2-2-2-2-2-0-2-5---5-2---------0-2-5-0-1-2---|
D|----------------------------------------------|

E|x-x-x-x-x-x-------------|
B|x-x-x-x-x-x-------------|
G|x-x-x-x-x-x-7-----------|  Two
D|x-x-x-x-x-x-7-----7-----| Times
A|x-x-x-x-x-x-5-----7-----|
D|x-x-x-x-x-x-------7-----|

E|------------------------------------------------|
B|------------------------------------------------|
G|------------------------------------------------|
D|------------------2-----------------------2-----|
A|5-2-2-2-2-2-0-2-5---5-2-5-2-2-2-2-2-0-2-5---5-2-|
D|------------------------------------------------|

E|----------------------------------------------|
B|----------------------------------------------|
G|----------------------------------------------|
D|------------------2-----5-2-0-2---------------|
A|5-2-2-2-2-2-0-2-5---5-2---------0-2-5-0-1-2---|
D|----------------------------------------------|

E|x-x-x-x-x-x-x-x-x-0---|
B|x-x-x-x-x-x-x-x-x-0---|
G|x-x-x-x-x-x-x-x-x-0---|
D|x-x-x-x-x-x-x-x-x-----|
A|x-x-x-x-x-x-x-x-x-----|
D|x-x-x-x-x-x-x-x-x-----|

E|------------------------------------------------|
B|------------------------------------------------|
G|------------------------------------------------|
D|------------------2-----------------------2-----|
A|5-2-2-2---2-0-2-5---5-2-5-2-2-2---2-0-2-5---5-2-|
D|------------------------------------------------|

E|----------------------------------------------|
B|----------------------------------------------|
G|----------------------------------------------|
D|------------------2-----5-2-0-2---------------|
A|5-2-2-2---2-0-2-5---5-2---------0-2-5-0-1-2---|
D|----------------------------------------------|

E|------------------------------------------------|
B|------------------------------------------------|
G|------------------------------------------------|
D|------------------2-----------------------2-----|
A|5-2-2-2---2-0-2-5---5-2-5-2-2-2---2-0-2-5---5-2-|
D|------------------------------------------------|

E|----------------------------------------------|
B|----------------------------------------------|
G|----------------------------------------------|
D|------------------2-----5-2-0-2---------------|
A|5-2-2-2---2-0-2-5---5-2---------0-2-5-0-1-2---|
D|----------------------------------------------|

E|--------------------------------|
B|--------------------------------|
G|12------------------------------| One
D|---14-12-14-------12------------| Guitar
A|------------12-14----12-13-14---|
D|--------------------------------|
 |
E|--------------------------------|
B|12------------------------------|
G|---14-12-14-------12------------| Another
D|------------12-14----12-13-14---| Guitar
A|--------------------------------|
D|--------------------------------|

E|------------------|
B|------------------|
G|------------7-----|
D|------2-----7--7--|
A|0-2-5---5-2-5--7--|
D|---------------7--|

E|x-x-x-x-x-x--------|
B|x-x-x-x-x-x--------|
G|x-x-x-x-x-x-7------|
D|x-x-x-x-x-x-7--7---|
A|x-x-x-x-x-x-5--7---|
D|x-x-x-x-x-x---7----|

E|x-x-x-x-x-x-x-x-x-0--|
B|x-x-x-x-x-x-x-x-x-0--|
G|x-x-x-x-x-x-x-x-x-0--| Four
D|x-x-x-x-x-x-x-x-x-0--| Times
A|x-x-x-x-x-x-x-x-x-0--|
D|x-x-x-x-x-x-x-x-x-0--|

E|------------------------------------------------|
B|------------------------------------------------|
G|------------------------------------------------|
D|------------------------------------------------|
A|------------------0-----------------------0-----|
D|5-2-2-2-2-2-0-2-5---5-2-5-2-2-2-2-2-0-2-5---2-5-|

E|--------------------------------------------|
B|--------------------------------------------|
G|--------------------------------------------| Two
D|-----------------------5-2-0-2--------------| Times
A|------------------0------------0-2-5-0-1-2--|
D|5-2-2-2-2-2-0-2-5--5-2----------------------|

E|x-x-x-x-x-x-x-x-x-0-----------|
B|x-x-x-x-x-x-x-x-x-0-----------|
G|x-x-x-x-x-x-x-x-x-0-----------|
D|x-x-x-x-x-x-x-x-x-0-----------|
A|x-x-x-x-x-x-x-x-x-0-----------|
D|x-x-x-x-x-x-x-x-x-0-----------|

End on:
E|------|
B|------|
G|------|
D|9-9\--|
A|9-9\--|
D|9-9\--|

| \  slide down
| x  Mute note
===============================================================================
Tap to rate this tab
# A B C D E F G H I J K L M N O P Q R S T U V W X Y Z