Song name
# A B C D E F G H I J K L M N O P Q R S T U V W X Y Z

Ewert And The Two Dragons - Good Man Down chords

Highlighted       Show chord diagrams
Ewert and the two Dragons
"Good man Down"



     Dm          Am        G          C
E:------------------------------------------------------|
B:------------------------------------------------------|
G:-----2---2--------------------------------------------|
D:---0---0---0--------2---------2----------2-0----------|
A:-------------3-0--0---0-----------2-3--3-----3--------|
E:-------------------------3--3---3---------------------|


     Dm          Am        G         F
E:------------------------------------------------------|
B:------------------------------------------------------|
G:-----2---2--------------------------------------------|
D:---0---0---0--------2---------2-----------------------|
A:-------------3-0--0---0-------------------------0-3---|
E:-------------------------3--3---3--1-1-0-1--1-3-------|



Dm            Am           G            C
Here is a story about a boy and a girl
Dm            Am           G            C
She woke up one morning felt alone in this world
Dm             Am             G                   C
Despite the love for her, he couldn't keep her from leaving again
Dm    Am     G     F
She had to do it.


She cried in a night
He brought her flowers in the daytime
She tried and she tried to forget the past and all her past crimes
Despite the love for her, he couldn't keep her from leaving again
She had to do it.

Dm                             Am
How could you shoot a good man down?
G            F
Leave with a mourning
Dm                     Am
Brokenhearted on the ground
G                  F
Like the others before him
Dm                  Am
A burden heavy as a rock
G                   F
ain't nobody gonna stop her
Dm                  Am
Go ahead and walk alone
G                      F
and regret it some-else-where

E:------------------------------------------------------------|
B:-10--10-10-10--12-10----------------------------------------|
G:---------------------12-9~~--------------9------------------|
D:----------------------------12--12-12-12---12-10------------|
A:-------------------------------------------------12---------|
E:------------------------------------------------------------|


She cried in a night
He brought her flowers in the daytime
He gave up the fight while she was out comitting new crimes
Despite the love for her, he couldn't keep her from leaving again
She had to do it.


How could you shoot a good man down?
Leave with a mourning
Brokenhearted on the ground
Like the others before him
A burden heavy as a rock
ain't nobody gonna stop her
Go ahead and walk alone
and regret it some-else-where


E:-12~~---12-----------------------------12------------------------------|
B:-13~~---13--15--13--12-----------------13--15--13--12------------------|
G:-14~~---14--------------14--12---------14--------------14--12----------|
D:--------------------------------14-----------------------------14------|
A:-----------------------------------------------------------------------|
E:-----------------------------------------------------------------------|

  	
E:--------------------------------------------------------------------------------|
B:--------------------------------------------------------------------------------|
G:-9-----9----9----9----9----9----9----9----9----9----9----9----9---9---9---9-----|
D:----12---12---12---12---10---10---10---10---10---10---10---10---9---9---9---9---|
A:--------------------------------------------------------------------------------|
E:--------------------------------------------------------------------------------|


A burden heavy as a rock
ain't nobody gonna stop her
Go ahead and walk alone
and regret it some-else-where


How could she leave without mourning?
I'm like the others before me.



http://www.myspace.com/ewertandthetwodragons

Tap to rate this tab
# A B C D E F G H I J K L M N O P Q R S T U V W X Y Z