Song name
# A B C D E F G H I J K L M N O P Q R S T U V W X Y Z

Example - Kids Again tab

Intro:
------------------------------|
------------------------------|
---------5-5-5-5-5-6-5-5-5-5--|
----------6-6-6-6---6-6-6-6---|
------------------------------|
------------------------------|

Main Riff:
-----------8--10--------------------------------|
----8--11--------11--8------8h11p8--------------|
------------------------10---------10--8--------|
------------------------------------------------|
------------------------------------------------|
------------------------------------------------|
Tap to rate this tab
# A B C D E F G H I J K L M N O P Q R S T U V W X Y Z