Guitaretab - guitar tabs
Song name
# A B C D E F G H I J K L M N O P Q R S T U V W X Y Z
Home / E / Exies / Hey You tab

Exies - Hey You tab

I noticed some people had pretty good tabs, but I didn't get the full versions. This is 
everyone who needs a good one.

PM----\ - Palm Mute
+----\ - Artificial Harmonics
/ - Slide Up
h - Hammer-On
p  Pull-off
* - Scrape Pick Along Strings

Intro
eb|---------------------|---------------------|
Bb|---------------------|---------------------|
Gb|-----8h9~8-----8h9~8-|-----8h9~8-----8h9~8-|
Db|---7---------7-------|---7---------7-------|
Ab|-9---------9---------|-9---------9---------|
Db|---------------------|---------------------|

Verse
eb|-------------------|---------------xx-|
Bb|-------------------|---------------xx-|
Gb|-------------------|---------------xx-|
Db|---9~~~~~~~~~~~~---|---9~~~~~~~~~~~xx-|
Ab|-7~~~~~~~~~~~~~~---|-7~~~~~~~~~~~~~xx-|
Db|-------------------|---------------xx-|

Pre-Chorus
   PM------------------------------------\--|
eb|-------------------|---------------------|
Bb|-------------------|---------------------|
Gb|-------------------|---------------------|
Db|-------------------|---------------------|
Ab|-9-00-9-0022006-00-|-9-00-9-0022006-00---|
Db|-9-00-9-0022006-00-|-9-00-9-0022006-00---|

   PM---------------------------------\--|
eb|-------------------|------------------|
Bb|-------------------|------------------|
Gb|-------------------|------------------|
Db|-------------------|------------------|
Ab|-9-00-9-0022006-00-|-9-00-9-0022006---|
Db|-9-00-9-0022006-00-|-9-00-9-0022006---|

Chorus
eb|-------------------|-------------------|
Bb|-------------------|-------------------|
Gb|-------------------|-------------------|
Db|-9-00-9-0-22-0-6-0-|-9-00-9-0-220-6-0-|
Ab|-9-00-9-0-22-0-6-0-|-9-00-9-0-22-0-6-0-|
Db|-9-00-9-0-22-0-6-0-|-9-00-9-0-22-0-6-0-|

eb|-------------------|-------------------|
Bb|-------------------|-------------------|
Gb|-------------------|-------------------|
Db|-9-00-9-0-22-0-6-0-|-9-00-9-0-220-6-0-|
Ab|-9-00-9-0-22-0-6-0-|-9-00-9-0-22-0-6-0-|
Db|-9-00-9-0-22-0-6-0-|-9-00-9-0-22-0-6-0-|

Bridge
eb|---------|---------|----------------------------------------------|
Bb|-8~8~8~~-|-5~5~5~~-|----12~12~12~1212~12~12~12~12~1212121212~12~~-|
Gb|-7~7~7~~-|-4~4~4~~-|----11~11~11~1111~11~11~11~11~1111111111~11~~-|
Db|-5~5~5~~-|-2~2~2~~-|-----9~-9~-9~-9-9~-9~-9~-9~-9~-9-9-9-9-9~-9~~-|
Ab|-5~5~5~~-|-2~2~2~~-|-----9~-9~-9~-9-9~-9~-9~-9~-9~-9-9-9-9-9~-9~~-|
Db|-5~5~5~~-|-2~2~2~~-|-----9~-9~-9~-9-9~-9~-9~-9~-9~-9-9-9-9-9~-9~~-|

eb|---------|---------|---------------------|
Bb|-8~8~8~~-|-5~5~5~~-|----12~12~12~~-------|
Gb|-7~7~7~~-|-4~4~4~~-|----11~11~11~~-------|
Db|-5~5~5~~-|-2~2~2~~-|-----9~-9~-9~~-------|
Ab|-5~5~5~~-|-2~2~2~~-|-----9~-9~-9~~-------|
Db|-5~5~5~~-|-2~2~2~~-|-----9~-9~-9~~-------|
eb|-------------------|---------------------|
Bb|-------------------|---------------------|
Gb|-------------------|---------------------|
Db|-9-00-9-0-22-0-6-0-|-9-00-9-0-220-6-0---|
Ab|-9-00-9-0-22-0-6-0-|-9-00-9-0-22-0-6-0---|
Db|-9-00-9-0-22-0-6-0-|-9-00-9-0-22-0-6-0---|

eb|-------------------|-------------------|
Bb|-------------------|-------------------|
Gb|-------------------|-------------------|
Db|-9-00-9-0-22-0-6-0-|-9-00-9-0-220-6-0-|
Ab|-9-00-9-0-22-0-6-0-|-9-00-9-0-22-0-6-0-|
Db|-9-00-9-0-22-0-6-0-|-9-00-9-0-22-0-6-0-|

Verse
eb|----------------xx-|------------------|
Bb|----------------xx-|------------------|
Gb|----------------xx-|------------------|
Db|---9~~~~~~~~~~~~xx-|---9~~~~~~~~~~~~/-|
Ab|-7~~~~~~~~~~~~~~xx-|-7~~~~~~~~~~~~~~/-|
Db|----------------xx-|------------------|

Pre-chorus
   PM------------------------------------\--|
eb|-------------------|---------------------|
Bb|-------------------|---------------------|
Gb|-------------------|---------------------|
Db|-------------------|---------------------|
Ab|-9-00-9-0022006-00-|-9-00-9-0022006-00---|
Db|-9-00-9-0022006-00-|-9-00-9-0022006-00---|

   PM--------------------------------\------------|
eb|-------------------|---------------------------|
Bb|-------------------|---------------------------|
Gb|-------------------|---------------------------|
Db|-------------------|---------------------------|
Ab|-9-00-9-0022006-00-|-9-00-9-002200--********---|
Db|-9-00-9-0022006-00-|-9-00-9-002200--********---|

Chorus
eb|-------------------|-------------------|
Bb|-------------------|-------------------|
Gb|-------------------|-------------------|
Db|-9-00-9-0-22-0-6-0-|-9-00-9-0-220-6-0-|
Ab|-9-00-9-0-22-0-6-0-|-9-00-9-0-22-0-6-0-|
Db|-9-00-9-0-22-0-6-0-|-9-00-9-0-22-0-6-0-|

eb|-------------------|-------------------|
Bb|-------------------|-------------------|
Gb|-------------------|-------------------|
Db|-9-00-9-0-22-0-6-0-|-9-00-9-0-220-6-0-|
Ab|-9-00-9-0-22-0-6-0-|-9-00-9-0-22-0-6-0-|
Db|-9-00-9-0-22-0-6-0-|-9-00-9-0-22-0-6-0-|
[ Tab from: http://www.guitaretab.com/e/exies/143223.html ]
Bridge
eb|---------|---------|-------------------------------------|
Bb|-8~8~8~~-|-5~5~5~~-|----12~12~12~1212~12~12~12~12~1212~~-|
Gb|-7~7~7~~-|-4~4~4~~-|----11~11~11~1111~11~11~11~11~1111~~-|
Db|-5~5~5~~-|-2~2~2~~-|-----9~-9~-9~-9-9~-9~-9~-9~-9~-9-9~~-|
Ab|-5~5~5~~-|-2~2~2~~-|-----9~-9~-9~-9-9~-9~-9~-9~-9~-9-9~~-|
Db|-5~5~5~~-|-2~2~2~~-|-----9~-9~-9~-9-9~-9~-9~-9~-9~-9-9~~-|

eb|---------|---------|---------------|
Bb|-8~8~8~~-|-5~5~5~~-|----12~12~12~~-|
Gb|-7~7~7~~-|-4~4~4~~-|----11~11~11~~-|
Db|-5~5~5~~-|-2~2~2~~-|-----9~-9~-9~~-|
Ab|-5~5~5~~-|-2~2~2~~-|-----9~-9~-9~~-|
Db|-5~5~5~~-|-2~2~2~~-|-----9~-9~-9~~-|

eb|-------------------|-------------------|
Bb|-------------------|-------------------|
Gb|-------------------|-------------------|
Db|-9-00-9-0-22-0-6-0-|-9-00-9-0-220-6-0-|
Ab|-9-00-9-0-22-0-6-0-|-9-00-9-0-22-0-6-0-|
Db|-9-00-9-0-22-0-6-0-|-9-00-9-0-22-0-6-0-|

eb|-------------------|----------------------|
Bb|-------------------|----------------------|
Gb|-------------------|----------------------|
Db|-9-00-9-0-22-0-6-0-|-9-00-9-0-220-6-0----|
Ab|-9-00-9-0-22-0-6-0-|-9-00-9-0-22-0-6-0-**-|
Db|-9-00-9-0-22-0-6-0-|-9-00-9-0-22-0-6-0-**-|

Solo
eb|----------------------|-----------------------|
Bb|----------16h17p16----|----------16h17-16h17~-|
Gb|----14-16----------16-|----14-16--------------|
Db|-16-------------------|-16--------------------|
Ab|----------------------|-----------------------|
Db|----------------------|-----------------------|

eb|----------------------|-----------------------|
Bb|----------16h17p16----|----------16h17-16h17~-|
Gb|----14-16----------16-|----14-16--------------|
Db|-16-------------------|-16--------------------|
Ab|----------------------|-----------------------|
Db|----------------------|-----------------------|

eb|----17-19----17-19----------------------|
Bb|-19-------19-------19-18-18p17h18-17-18-|
Gb|----------------------------------------|
Db|----------------------------------------|
Ab|----------------------------------------|
Db|----------------------------------------|

eb|----17-19----17-19--------------------|
Bb|-19-------19-------19-18-18p17h18-17~-|
Gb|--------------------------------------|
Db|--------------------------------------|
Ab|--------------------------------------|
Db|--------------------------------------|

eb|----17-19----17-19----------------------|
Bb|-19-------19-------19-18-18p17h18-17-18-|
Gb|----------------------------------------|
Db|----------------------------------------|
Ab|----------------------------------------|
Db|----------------------------------------|

eb|----17-19----17-19--------------------|
Bb|-19-------19-------19-18-18p17h18-17~-|
Gb|--------------------------------------|
Db|--------------------------------------|
Ab|--------------------------------------|
Db|--------------------------------------|

eb|---------|
Bb|---------|
Gb|---------|
Db|-9~~~----|
Ab|-9~~~----|
Db|-9~~~----|

Cooldown
eb|-----------------|------------------|
Bb|-----------------|------------------|
Gb|-----------------|------------------|
Db|----9~~~~~~~~~~~-|---9~~~~~~~~~~~~~-|
Ab|--7~~~~~~~~~~~~~-|-7~~~~~~~~~~~~~~~-|
Db|-----------------|------------------|

eb|-----------------|-----------------|
Bb|-----------------|-----------------|
Gb|-----------8h9-8-|-----------8h9-8-|
Db|-----------------|-----------------|
Ab|-9-00-9-00-------|-9-00-9-00-------|
Db|-9-00-9-00-------|-9-00-9-00-------|

eb|-----------------|-------------------|
Bb|-----------------|-------------------|
Gb|-----------8h9-8-|-------------------|
Db|-----------------|--------------12~~-|
Ab|-9-00-9-00-------|-9-00-9-00----12~~-|
Db|-9-00-9-00-------|-9-00-9-00----12~~-|

Chorus
eb|-------------------|-------------------|
Bb|-------------------|-------------------|
Gb|-------------------|-------------------|
Db|-9-00-9-0-22-0-6-0-|-9-00-9-0-220-6-0-|
Ab|-9-00-9-0-22-0-6-0-|-9-00-9-0-22-0-6-0-|
Db|-9-00-9-0-22-0-6-0-|-9-00-9-0-22-0-6-0-|

eb|-------------------|-------------------|
Bb|-------------------|-------------------|
Gb|-------------------|-------------------|
Db|-9-00-9-0-22-0-6-0-|-9-00-9-0-220-6-0-|
Ab|-9-00-9-0-22-0-6-0-|-9-00-9-0-22-0-6-0-|
Db|-9-00-9-0-22-0-6-0-|-9-00-9-0-22-0-6-0-|

Bridge
eb|---------|---------|-------------------------------------|
Bb|-8~8~8~~-|-5~5~5~~-|----12~12~12~1212~12~12~12~12~1212~~-|
Gb|-7~7~7~~-|-4~4~4~~-|----11~11~11~1111~11~11~11~11~1111~~-|
Db|-5~5~5~~-|-2~2~2~~-|-----9~-9~-9~-9-9~-9~-9~-9~-9~-9-9~~-|
Ab|-5~5~5~~-|-2~2~2~~-|-----9~-9~-9~-9-9~-9~-9~-9~-9~-9-9~~-|
Db|-5~5~5~~-|-2~2~2~~-|-----9~-9~-9~-9-9~-9~-9~-9~-9~-9-9~~-|

eb|---------|---------|---------------|
Bb|-8~8~8~~-|-5~5~5~~-|----12~12~12~~-|
Gb|-7~7~7~~-|-4~4~4~~-|----11~11~11~~-|
Db|-5~5~5~~-|-2~2~2~~-|-----9~-9~-9~~-|
Ab|-5~5~5~~-|-2~2~2~~-|-----9~-9~-9~~-|
Db|-5~5~5~~-|-2~2~2~~-|-----9~-9~-9~~-|

Outro
eb|----------------------|----------------------|
Bb|----------16h17p16----|----------16h17p16----|
Gb|----14-16----------16-|----14-16----------16-|
Db|-16-------------------|-16-------------------|
Ab|----------------------|----------------------|
Db|----------------------|----------------------|

eb|----------------------|--------------|
Bb|----------16h17p16----|--------------|
Gb|----14-16----------16-|----14-16-----|
Db|-16-------------------|-16-------220-|
Ab|----------------------|----------220-|
Db|----------------------|----------220-|
Related for Hey You tab