Song name
# A B C D E F G H I J K L M N O P Q R S T U V W X Y Z

Exies - Stray tab

this is suposed to be on piano but you can manage on guitar. the chords are suposed to 
out but that doesn't work for the finger movement.
piano verse  x3
e(----------------------------------------)
b(----------------------------------------)
g(--5-------5-----------------------------)
d(--5-------5-------3-------5-------------)
a(--3--565--3--565--3--565--5--565-2--565-)
D(------------------3-------5-------------)

piano chorus
e(----------------------3-----------------)
b(----------------------------------------)
g(--------------------5---5-5-3-3-3---3-5-)
d(--6-6-6-6-6-3-3-3-3-5---5-5-3-3-3-3---5-)
a(--6---6-6---3---3-3-3---3-3-1-1-1-----3-)
D(--6---6-6---3---3-3---------------------)

guitar (Delay)
e(-----------------)
b(-----------------)
g(-----------------)
d(-----------------)
a(--3--565--3--565-)
D(-----------------)

guitar verse
e(-----------------------------------)
b(-----------------------------------)
g(--55555555555555555555555555555555-)
d(--55555555555555555555555555555555-)
a(--33333333333333333333333333333333-)
D(-----------------------------------)
  pm................................

guitar verse continued
e(-----------------------------------)
b(-----------------------------------)
g(-----------------------------------)
d(--33333333333333335555555533331111-)
a(--33333333333333335555555533331111-)
D(--33333333333333335555555533331111-)
  pm............................

guitar verse continued
e(------------------------------------)
b(------------------------------------)
g(--5555-------------5555-------------)
d(--5555-------------5555-------------)
a(--3333-0-1-3-3-133-3333-0-1-3-3-133-)
D(------------------------------------)
  ph....             ....

guitar verse continued
e(-----------------------------------)
b(-----------------------------------)
g(-----------------------------------)
d(--33333333333333335555555533331111-)
a(--33333333333333335555555533331111-)
D(--33333333333333335555555533331111-)
  pm............................

verse(lead) x7
e(-------------------)
b(-------------------)
g(--5577887788778877-)
d(-------------------)
a(-------------------)
D(-------------------)

vesre(lead)continued
e(-------------------)
b(----------66-------)
g(--55778877--778877-)
d(-------------------)
a(-------------------)
D(-------------------)

verse(lead)continued
e(--------------------------------)
b(--------------------------------)
g(--5577887788778877-5-7-8-5-7-88-)
d(--------------------------------)
a(--------------------------------)
D(--------------------------------)

verse(lead)continued x2
e(-------------------)
b(-------------------)
g(--5577887788778877-)
d(-------------------)
a(-------------------)
D(-------------------)

chorus x2
e(----------------------------------)
b(----------------------------------)
g(------------------555555553333333-)
d(--6666666633333333555555553333333-)
a(--6666666633333333333333331111111-)
D(--6666666633333333----------------)

chorus continued
e(-------------------)
b(-------------------)
g(----------55555555-)
d(--6666666655555555-)
a(--6666666633333333-)
D(--66666666---------)

chorus(lead)
e(----------------------------------)
b(----------------------------------)
g(--8888888555555555555555533333333-)
d(----------------------------------)
a(----------------------------------)
D(----------------------------------)

chorus(lead)continued
e(-----------------------------66666666-)
b(--999999999886666666688888888---------)
g(--------------------------------------)
d(--------------------------------------)
a(--------------------------------------)
D(--------------------------------------)

chorus(lead)continued
e(-----------------)
b(--99999999-------)
g(----------7777-5-)
d(-----------------)
a(-----------------)
D(-----------------)

bridge
e(-------------------------------)
b(-------------------------------)
g(-------------------------------)
d(--1---1---1---6666666655555555-)
a(--1---1---1---6666666655555555-)
D(--1---1---1---6666666655555555-)

bridge(lead)
e(--------------------------------------------------)
b(--------------------------------------------------)
g(--------------------------------------------------)
d(--------------------------------------------------)
a(--6-5-6-5-6-5-6-8-6-5-6-5-6-5-6-5-6-5-6-5-6-5-6-5-)
D(--------------------------------------------------)

bridge(lead)continued
e(--------------------------------------------------)
b(--------------------------------------------------)
g(--13-13-13-13-13-13-13-13-12-12-12-12-12-12-12-12-)
d(--13-13-13-13-13-13-13-13-12-12-12-12-12-12-12-12-)
a(--11-11-11-11-11-11-11-11-10-10-10-10-10-10-10-10-)
D(--------------------------------------------------)

play this during solo
e(-----------------------------------)
b(-----------------------------------)
g(-----------------------------------)
d(-----------------------------------)
a(--33333333333333331111111111111111-)
D(-----------------------------------)

continued
e(-------------------------------------------)
b(-------------------------------------------)
g(-------------------------------------------)
d(--66666666666666665555555555555555-6-5-3-5-)
a(--66666666666666665555555555555555-6-5-3-5-)
D(--66666666666666665555555555555555-6-5-3-5-)

solo
e(--11-11-11-11-11p10-10-10-10-10-10p8-88---------------------)
b(----------------------------------------8-8h9p8-8h9p8-8h9p8-)
g(------------------------------------------------------------)
d(------------------------------------------------------------)
a(------------------------------------------------------------)
D(------------------------------------------------------------)

solo continued
e(---------------16-16-15-16-15-13-15-)
b(------------------------------------)
g(--10-8-5h7-7/8----------------------)
d(------------------------------------)
a(------------------------------------)
D(------------------------------------)


use bridge for outro


ending (lead)
e(---------------------)
b(--9999999988888888---)
g(------------------8--)
d(---------------------)
a(---------------------)
D(---------------------)
Tap to rate this tab
# A B C D E F G H I J K L M N O P Q R S T U V W X Y Z