Song name
# A B C D E F G H I J K L M N O P Q R S T U V W X Y Z

Exies - These Are The Days tab

Band: The Exies
Song: These Are The Days

Tuning:C G C F A D

Part:I
d|-----------------------------------------------------|
A|-----------------------------------------------------|
F|-----------------------------------------------------|
C|--10-10-10-------10-10-10----------7-7---------------|
G|--8--8--8--------8--8--8-----------7-7---2x----------|
C|--0--0--0--------8--8--8-----------7-7---------------|
           .......         ......

Part:II
d|--------------------------------------------------------|
A|--------------------------------------------------------|
F|--------------------------------------------------------|
C|--10-10-----10-10-----3-3-----5-5-5-5---7---------------|
G|--8--8------8--8------3-3-----3-3-3-3---4-----2x--------|
C|--0--0------8--8------3-3-------------------------------|
         ....      ....    ....


Part:III
d|---------------------------------------------------------------------|
A|---------------------------------------------------------------------|
F|---------------------------------------------------------------------|
C|--3-3-----3-3-----5-5----3-3-----3-3----3-3----5-5----7-7-7----------|
G|--1-1-----0-0-----5-5----3-3-----1-1----0-0----3-3----4-4-4----------|
C|------------------5-5----3-3-----------------------------------------|
       ....    ....    ....   ....    ....   ....   ....    ....

Part:IV
d|--------------------------------------------------------------|
A|--------------------------------------------------------------|
F|--------------------------------------------------------------|
C|---7-7----8-8----3-3----5-5-5-5---7-7-7-----------------------|
G|---5-5----8-8----3-3----3-3-3-3---4-4-4-----2x----------------|
C|---0-0----8-8----3-3------------------------------------------|
        ....   ....   ....

Part:I
Intro


Part:II
The more i talk the less i say
When the words get in the way
Lonliness is so hard
Lonliness is so hard
Ordinary i confess
Living under house arrest
Maybe i belong here
Maybe i belong


Part:III
Suddenly there's beauty in
The way my heart is caving in
And every scar reminds me how
I can't deny


Part:IV
These are the days that last forever
A time in my life i won't surrender
For better or worse, these are the days
In my life i've loved no other
We all have pain, we all have suffered
For better or worse, these are the days
I will remember

Part:II
The more i learn, the less i know
The final act of letting go
Of everything that life takes
The reason why my heart breaks


Part:III
Suddenly there's comfort in
The way the world comes crashing in
And every tear reminds me i'm alive
Tonight


Part:IV
These are the days that last forever
A time in my life i won't surrender
For better or worse, these are the days
In my life i've loved no other
We all have pain, we all have suffered
For better or worse, these are the days
I will remember

d|----------------------------------------------------|
A|----------------------------------------------------|
F|----------------------------------------------------|
C|--10-10---10-10---7-7----10-10---5-5----------------|
G|--8--8----8--8----7-7----8--8----3-3----------------|
C|--0--0----8--8----7-7----0--0-----------------------|
        ....    ....           ....   ....

Part:II
The more i talk, the less i say
When the words get in the way
Lonliness is so hard
Lonliness is so hard
Ordinary i confess
Living under house arrest
Maybe i belong here
Maybe i belong

Part:IV
These are the days that last forever
A time in my life i won't surrender
For better or worse, these are the days
In my life i've loved no other
We all have pain, we all have suffered
For better or worse, these are the days
I will remember
I will remember
I will remember
Tap to rate this tab
 
# A B C D E F G H I J K L M N O P Q R S T U V W X Y Z