Guitaretab - guitar tabs
Song name
# A B C D E F G H I J K L M N O P Q R S T U V W X Y Z
Home / E / Exit / Susan tab

Exit - Susan tab

Updated version: To the people who judge which are good tabs, please dont put the
previous version I sent in, it's wrong... this one is correct.

The Exit - Susan (Off American Pie 2 Soundtrack)

The Exit - Susan

Intro: (Palm Muted)
E------------0------------------------0-------------------------0--------------------------------------|
B------3--------3------3---------3-------3-----3-----------3--------3-----3-----------3---------3------|
G---2-------------------------2-------------------------2--------------------------2---------2-----2---|
D0-------0---------0-------4--------4-------4-----------------------------------5---------5-----------5|
A----------------------------------------------------4--------0--------4-------------------------------|
E------------------------------------------------------------------------------------------------------|

E------------0------------------------0-------------------------0--------------------------------------|
B------3--------3------3---------3-------3-----3-----------3--------3-----3-----------3---------3------|
G---2-------------------------2-------------------------2--------------------------2---------2---------|
D0-------0---------0-------4--------4-------4-----------------------------------5---------5------------|
A----------------------------------------------------4--------0--------4-------------------------------|
E------------------------------------------------------------------------------------------------------|


Verses: (Palm Muted)
E------------0------------------------0-------------------------0--------------------------------------|
B------3--------3------3---------3-------3-----3-----------3--------3-----3-----------3---------3------|
G---2-------------------------2-------------------------2--------------------------2---------2-----2---|
D0-------0---------0-------4--------4-------4-----------------------------------5---------5-----------5|
A----------------------------------------------------4--------0--------4-------------------------------|
E------------------------------------------------------------------------------------------------------|
1) She pulled her skirt back down... after he was done...
2) Put a mark on her past... chalk one up for Brad...

E---------------0------------------------0-------------------------0--------------------------------|
B---------3--------3------3---------3-------3-----3-----------3--------3-----3-----------3---------3|
G------2-------------------------2-------------------------2--------------------------2---------2---|
D---0-------0---------0-------4--------4-------4-----------------------------------5---------5------|
A-------------------------------------------------------4--------0--------4-------------------------|
E---------------------------------------------------------------------------------------------------|x2
1) She took a look at him... she wanted to run...
2) He gave a kiss goodbye... she wanted him to die...

E------------------------------------------0------------------------------------|---------------------|
B---------3-----------3-------------3----------3-----3--------------------------|---------------------|
G------2-----------2-------------2--------------------------------- (all x 2)---|---------------------|
D-----------------------------0---------0---------0-----------------------------|---------------------|
A--2-----------0----------------------------------------------------------------|----0-0-0-0-0-0-0-0--|
E-------------------------------------------------------------------------------|---------------------|

(Not Palm Muted)
E------------------------------------------------------------------------------|
B------------------------------------------------------------------------------|
G-----7-7-7-7-7-7-7-7----------------------------------------------------------|
D-----7-7-7-7-7-7-7-7-----5-5-5-5-5-5-5-5-/-9-9-9-9-9-9-9-9-/-7-7-7-7-7-7-7-7--|
A-----5-5-5-5-5-5-5-5-----5-5-5-5-5-5-5-5-/-9-9-9-9-9-9-9-9-/-7-7-7-7-7-7-7-7--|
E-------------------------3-3-3-3-3-3-3-3-/-7-7-7-7-7-7-7-7-/-5-5-5-5-5-5-5-5--|(x 2)
Look in her eyes you can find her... Look in her eyes you can find her somewhere... (x 2)

E----------------------------------|
B----------------------------------|
G----------------------------------|
D-----7-7-7-7-7-7-7-7--------------|
A-----7-7-7-7-7-7-7-7--------------|
E-----5-5-5-5-5-5-5-5--------------|
Somewhere...

These could be power chords if you want a fuller sound
E------------------------------------------------------------------------------------|
B------------------------------------------------------------------------------------|
G------------------------------------------------------------------------------------|
D----------4------2------5-------4-----2-----------------4---------2-------5---4--2--|
A---5---------------------------------------------5----------------------------------|
E------------------------------------------------------------------------------------|
(Same rhythm, repeated)
[ Tab from: http://www.guitaretab.com/e/exit/135551.html ]
Play verses again and the bit after it... which are: (Palm Muted)
E------------0------------------------0-------------------------0------------------------------------|
B------3--------3------3---------3-------3-----3-----------3--------3-----3---------3---------3------|
G---2-------------------------2-------------------------2------------------------2---------2-----2---|
D0-------0---------0-------4--------4-------4---------------------------------5---------5-----------5|
A----------------------------------------------------4--------0--------4-----------------------------|
E----------------------------------------------------------------------------------------------------|
1) The next day at school... the rumours flew...
2) And you could tell from the crowd that he felt do proud

E------------0------------------------0-------------------------0----------------------------------|
B------3--------3------3---------3-------3-----3-----------3--------3-----3-----------3---------3--|
G---2-------------------------2-------------------------2--------------------------2---------2-----|
D0-------0---------0-------4--------4-------4-----------------------------------5---------5--------|
A----------------------------------------------------4--------0--------4---------------------------|
E--------------------------------------------------------------------------------------------------|x2
1) Susan hated her name... Susan hated her fame...
2) Another memory for her to take home... graved in stone...

E------------------------------------------0------------------------------------|-------------------|
B---------3-----------3-------------3----------3-----3--------------------------|-------------------|
G------2-----------2-------------2----------------------------------------------|-------------------|
D-----------------------------0---------0---------0-----------------------(x2)--|-------------------|
A--2-----------0----------------------------------------------------------------|----0-0-0-0-0-0-0-0|
E-------------------------------------------------------------------------------|-------------------|
Susan went home and cried... She lost something inside...

(Not Palm Muted)
E-------------------------------------------------------------------------------------------|
B-------------------------------------------------------------------------------------------|
G-----7-7-7-7-7-7-7-7-----------------------------------------------------------------------|
D-----7-7-7-7-7-7-7-7-----5-5-5-5-5-5-5-5-/-9-9-9-9-9-9-9-9-/-7-7-7-7-7-7-7-7---------------|
A-----5-5-5-5-5-5-5-5-----5-5-5-5-5-5-5-5-/-9-9-9-9-9-9-9-9-/-7-7-7-7-7-7-7-7---------------|
E-------------------------3-3-3-3-3-3-3-3-/-7-7-7-7-7-7-7-7-/-5-5-5-5-5-5-5-5----------(x 2)|
Look in her eyes you can find her... Look in her eyes you can find her somewhere... (x 2)

E------------------------------|
B------------------------------|
G------------------------------|
D-----7-7-7-7-7-7-7-7----------|
A-----7-7-7-7-7-7-7-7----------|
E-----5-5-5-5-5-5-5-5----------|
Somewhere...

E------------------------------------------------------|
B------------------------------------------------------|
G--7~~~~~----------------------7~~~~~------------------|
D--7~~~~~--------------7p5-----7~~~~~------------------|
A--5~~~~~----------------------5~~~~~-------------2p0--|
E------------------------------------------------------|(x3)
1) I don't mean to kill...             The illusion...
2) That I have a friend named Susan... But I bet she has a family...
3) And a dog and a brother... He's about three years younger...

E-----------------------------------------------------------------------------------|
B-----------------------------------------------------------------------------------|
G-----------------------------------------------------------------------------------|
D---------4------2------5-------4-----2-----------------4---------2-------5---4--2--|
A---5--------------------------------------------5----------------------------------|
E-----------------------------------------------------------------------------------|
(Same rhythm, repeated)
1) Sounds an awful lot like mine... If I remember correctly... I was 14 at the time...
2) So I think about my younger sister... I sure am gonna miss her... as a girl na´ve to this world...

E------------------------------------------0-------------------|--------------------|
B---------3-----------3-------------3----------3-----3---------|--------------------|
G------2-----------2-------------2-----------------------------|--------------------|
D-----------------------------0---------0---------0------(x2)--|--------------------|
A--2-----------0-----------------------------------------------|----0-0-0-0-0-0-0-0-|
E--------------------------------------------------------------|--------------------|
Susan went home and cried... She lost something inside...

E--------------------------------------------------------------------------------|
B------2/3---/2---------------2/3----/2-------------2/3----/2------------3/5-----|
G----2-----------2---------2------------2--------2------------2------------------|
D--0-----------------------------------------------------------------------------|
A---------------------------------------------2---------------------0------------|
E-----------------------3----------------------------------------------------(x2)|

1st time palm muted:
E------------------------------------------------------------------------------------|
B------------------------------------------------------------------------------------|
G-----7-7-7-7-7-7-7-7----------------------------------------------------------------|
D-----7-7-7-7-7-7-7-7-----5-5-5-5-5-5-5-5-/-9-9-9-9-9-9-9-9-/-7-7-7-7-7-7-7-7--------|
A-----5-5-5-5-5-5-5-5-----5-5-5-5-5-5-5-5-/-9-9-9-9-9-9-9-9-/-7-7-7-7-7-7-7-7--------|
E-------------------------3-3-3-3-3-3-3-3-/-7-7-7-7-7-7-7-7-/-5-5-5-5-5-5-5-5---(x 5)|
Look in her eyes you can find her... Look in her eyes you can find her somewhere... (x 5)

E---------------------------------------------------------------------------|
B---------------------------------------------------------------------------|
G---------------------------------------------------------------------------|
D-----7-7-7-7-7-7-7-7--------------------------0h2----p0--------------------|
A-----7-7-7-7-7-7-7-7-------------------0h2---------------------------------|
E-----5-5-5-5-5-5-5-5--------------2----------------------------------------|
Somewhere...
Related for Susan tab