Song name
# A B C D E F G H I J K L M N O P Q R S T U V W X Y Z

Failure - Saturday Savior tab

Gtr 1
w/light dist. (listen to the song to get the strumming right)
Intro Chords

e------------------------------------------------------------------|
b------------------------------------------------------------------|
g------------------------------------------------------------------|
d---9-----7-----12-----10------------------------------------------|
a---9-----7-----12-----10------------------------------------------|
D---7-----5-----10-----8-------------------------------------------|

Gtr 2 (fill 1)
w/ light dist.
e------------------------------------------------------------------|
b----------------------15--13------15--13--13----------------------|
g---9--11--12--14--12----------14--------------14--12--------------|
d------------------------------------------------------------------|
a------------------------------------------------------------------|
D------------------------------------------------------------------|

The chorus is the same as the intro except with more distortion, and the little fill 
the second chorus is the first couple notes of fill 1. Easy song by a great band.
Tap to rate this tab
 
# A B C D E F G H I J K L M N O P Q R S T U V W X Y Z