Song name
# A B C D E F G H I J K L M N O P Q R S T U V W X Y Z

Fall Out Boy - One And Only tab

-------------------------------------------------------------------
	   "One & Only" - Fall Out Boy feat Timbaland
-------------------------------------------------------------------
Tabbed by: Justin Riray
Myspace: www.myspace.com/riray www.myspace.com/neveryourstar www.myspace.com/myeriray
Youtube:   JustinRiray

Tuning: EADGBe

     Techno Riff
e|---------------------|
B|--7-------7-8---7-8--|
G|---------------------|
D|----9-9-9-----9------|
A|---------------------|
E|---------------------|

     CHORUS
e|------------------------|
B|------------------------|
G|--4-----------7---------|
D|--4-----5-----7-----7---|
A|--2-----5-----5-----7---|
E|--------3-----------5---|

play each chord for one measure

fun easy song. enjoy
Tap to rate this tab
# A B C D E F G H I J K L M N O P Q R S T U V W X Y Z