Guitaretab - guitar tabs
Song name
# A B C D E F G H I J K L M N O P Q R S T U V W X Y Z

Fall Out Boy - Beat It tab

^v^ = bend up and down etc
! = pinched harmonic (Squealie)
~ = vibrato
* = Palm muted
x = Left hand mute
p = pull off
h = hammer on
/#\ = slide 


==Intro==


Guitar I
e-0--------x-x-x--x-x-x-x----------------------------------------------------|
B-0-drums--x-x-x--x-x-x-x----------------------------------------------------|
G-0--enter-x-x-x--x-x-x-x----------------------------------------------------|
D-0--------x-x-x--x-x-x-x--------------5-2-2-4-2-0-0---------5-2-2-4-2-0--0-0|
A-0--------x-x-x--x-x-x-x------------2---------------------2-----------------|
E-0--------x-x-x--x-x-x-x--/12\--0-3-------------------0-3-------------------|



e------------------------------------------------|
B------------------------------------------------|
G------------------------------------------------|
D-------5-2-2-4-2-0-0---------5-2-2-4-2-0--0-0-0-|
A-----2---------------------2--------------------|
E-0-3-------------------0-3----------------------|


==Verse==


Guitar 1 -

e--------------------------------------------------------------------------|
B-----------------------------------------------------------------x-x-x-x--| 
G----------5-5-5-----------5-5-5---3-3-3---5-5-5---7-7-7----------x-x-x-x--|
D--0-0-0---5-5-5---0-0-0---5-5-5---3-3-3---5-5-5---7-7-7---0-0-0--x-x-x-x--|
A--0-0-0---3-3-3---0-0-0---3-3-3---1-1-1---3-3-3---5-5-5---0-0-0--x-x-x-x--|
E--0-0-0-----------0-0-0-----------------------------------0-0-0--x-x-x-x--|
   * * *   * * *   * * *   * * *   * * *   * * *   * * *   * * *


e----------------------------------------------------------------------------------------------|
B---------------------------------------------------------------------------------------x-x-x--| 
G----------5-5-5-x-x-x-x----------5-5-5-x-x-x-x--3-3-3---5-5-5-x-x-x-x--7-7-7-----------x-x-x--|
D--0-0-0---5-5-5-x-x-x-x--0-0-0---5-5-5-x-x-x-x--3-3-3---5-5-5-x-x-x-x--7-7-7---0-0-0---x-x-x--|
A--0-0-0---3-3-3-x-x-x-x--0-0-0---3-3-3-x-x-x-x--1-1-1---3-3-3-x-x-x-x--5-5-5---0-0-0---x-x-x--|
E--0-0-0------------------0-0-0-------------------------------------------------0-0-0---x-x-x--|


Guitar 2 - starts play the second time around for guitar 1.

e-------------------|
B-------------------| 
G--7--10--7------7--| X the length of the second part.
D------------10-----|
A-------------------|
E-------------------|


==Chorus==

Guitar 1- on the seventh time, play the second part at the end instead of the one 0.

e----------------------------------------------------|       |-------|
B----------------------------------------------------|       |-------|
G----------------------------------------------------| X6    |-------|
D-----------5-2-2-4-2-0-0---------5-2-2-4-2-0--0-0---|       |--0-0-0|
A---------2---------------------2--------------------|       |-------|
E--/12\0-3-------------------0-3---------------------|       |-------|


==Verse==


==Breakdown==

Guitar 1-


e---------------------------------------------------------------------------|
B---------------------------------------------------------------------------|
G---------------------------------------------------------------------------|
D--0-0-0--0-0-0------0-0-0--0-0-0---------0-0-0--0-0-0--------0-0-0--0-0-0--|
A--0-0-0--0-0-0------0-0-0--0-0-0---------0-0-0--0-0-0--------0-0-0--0-0-0--|
E--0-0-0--0-0-0------0-0-0--0-0-0---------0-0-0--0-0-0--------0-0-0--0-0-0--|

Guitar 2


e---------------------------------------------------------------------------|
B---------------------------------------------------------------------------|
G---------------------------------------------------------------------------|
D--0-0-0--0-0-0------0-0-0--0-0-0---------0-0-0--0-0-0---7!---0-0-0--0-0-0--|
A--0-0-0--0-0-0------0-0-0--0-0-0--3~-5---0-0-0--0-0-0--------0-0-0--0-0-0--|
E--0-0-0--0-0-0------0-0-0--0-0-0---------0-0-0--0-0-0--------0-0-0--0-0-0--|



Guitar 1
[ Tab from: http://www.guitaretab.com/f/fall-out-boy/165279.html ]
e--------10-10------10-10------10-10------10-10------10-10------10-10--------------------------|
B--------10-10------10-10------10-10------10-10------10-10------10-10--------------------------|
G--------10-10------10-10------10-10------10-10------10-10------10-10--------------------------|
D--------------12~--------12~--------12~--------12~--------12~--------12~--0-0-0--0-0-0--------|
A--------------------------------------------------------------------------0-0-0--0-0-0--------|
E--------------------------------------------------------------------------0-0-0--0-0-0--------|


Guitar 2


e--------------------------------------------------------------------------|
B-------------------------------------------------------------------x-x-x--| 
G----------5-5-5-----------5-5-5---3-3-3---5-5-5---7-7-7----------5-x-x-x--|
D--0-0-0---5-5-5---0-0-0---5-5-5---3-3-3---5-5-5---7-7-7---0-0-0--5-x-x-x--|
A--0-0-0---3-3-3---0-0-0---3-3-3---1-1-1---3-3-3---5-5-5---0-0-0--3-x-x-x--|
E--0-0-0-----------0-0-0-----------------------------------0-0-0----x-x-x--|
   * * *   * * *   * * *   * * *   * * *   * * *   * * *   * * *


e----------------------------------------------------------------------------------------------|
B---------------------------------------------------------------------------------------x-x-x--| 
G----------5-5-5-x-x-x-x----------5-5-5-x-x-x-x--3-3-3---5-5-5-x-x-x-x--7-7-7-----------x-x-x--|
D--0-0-0---5-5-5-x-x-x-x--0-0-0---5-5-5-x-x-x-x--3-3-3---5-5-5-x-x-x-x--7-7-7---0-0-0---x-x-x--|
A--0-0-0---3-3-3-x-x-x-x--0-0-0---3-3-3-x-x-x-x--1-1-1---3-3-3-x-x-x-x--5-5-5---0-0-0---x-x-x--|
E--0-0-0------------------0-0-0-------------------------------------------------0-0-0---x-x-x--|

e----------------------------------------------------------------------------------------------|
B----------------------------------------------------------------------------------------------|
G----------------------------------------------------------------------------------------------|
D--------0-0-0------0-0-0------0-0-0------0-0-0------0-0-0------0-0-0------0-0-0--0-0-0--------|
A--3~-5--0-0-0------0-0-0------0-0-0------0-0-0-3~-5-0-0-0------0-0-0------0-0-0--0-0-0--------|
E--------0-0-0------0-0-0------0-0-0------0-0-0------0-0-0------0-0-0------0-0-0--0-0-0--------|



==Solo==


Guitar 1


e-------------------------X-------------------------------------------------|
B-----------------6-8-10---X-8/10-13p10-------------------------------------|
G-------------5-7----------------------12-10-13\12-10\7-7-------------------|
D--7\6/7--5/7---------------------------------------------------------------|
A---------------------------------------------------------------------------|
E---------------------------------------------------------------------------|

e-----8--------------------------------13-----------------------------------|
B-8h10-9\8-8p6-8-6---------6-5------------15-15-----------------------------|
G-----------------------5-7----7--13/14--------12p10------------------------|
D--------------------5/7----------------------------12-12p10-12-12p10-12-12-|
A---------------------------------------------------------------------------|
E---------------------------------------------------------------------------|

eX--------------------------------------------------------------------------|
B-X3p1-3p1-3p1-3p1-1-3/15---------------------------------------------------|
G-----3---3---3---3------14p12--12-14---------------------------------------|
D-----------------------------15-----12-10-------/12------------------------|
A-----------------------------------------12-10-8---------------------------|
E---------------------------------------------------------------------------|
 

e----6\5/6-6/8------10/12---5---8---10--12---13--15--17-/22-----------------|
B---6-------------8---------tremelo picking above---------------------------|
G--7-------------9----------------------------------------------------------|
D-8------------10-----------------------------------------------------------|
A---------------------------------------------------------------------------|
E---------------------------------------------------------------------------|


==Chorus==


Guitar 1-On the eighth time, replace the two open strings.


e----------------------------------------------------|       |-------|
B----------------------------------------------------|       |-------|
G----------------------------------------------------| X8    |-------|
D-----------5-2-2-4-2-0-0---------5-2-2-4-2-0--0-0---|       |--0-0-0|
A---------2---------------------2--------------------|       |-------|
E--/12\0-3-------------------0-3---------------------|       |-------|


e--------------------------------------------------|
B--------------------------------------------------|
G--------------------------------------------------|

D--0-0--0----0-0--0----x-x-0--0--0----x-x-0--0--0--|

A--0-0--0----0-0--0----x-x-0--0--0----x-x-0--0--0--|

E--0-0--0----0-0--0----x-x-0--0--0----x-x-0--0--0--|
Related for Beat It tab
Beat It chords by Fall Out Boy