Song name
# A B C D E F G H I J K L M N O P Q R S T U V W X Y Z

Fall Out Boy - So Sick tab

                                 Patrick Stump
                              "So Sick" Ne-Yo Cover
                                Live On BBC Radio
Intro
e------------------------------------------------|
B---7------4------0-----6------------------------|
G---6------4------4-----6--x2--------------------|
D------------------------------------------------|
A-6----4-2----2-----2-4--------------------------|
E---------------4--------------------------------|

e------------------------------------------------|
B---4-4--------4-4-------4-4------4-4------------|
G---3-3--------3-3-------3-3------3-3------------|
D---4-4--------4-4-------4-4------4-4------------|
A-2--------2-2-------2-2------2-2----------------|
E------------------------------------------------|


"Gotta Change That Answering Machine..."
e------------------------------------------------|
B---7------4------0-----6------------------------|
G---6------4------4-----6--x3--------------------|
D------------------------------------------------|
A-6----4-2----2-----2-4--------------------------|
E---------------4--------------------------------|

e-------------------------------------|----------|
B---4-4--------4-4-------4-4------4-4-|-44444444-|
G---3-3--------3-3-------3-3------3-3-|-33333333-|
D---4-4--------4-4-------4-4------4-4-|-44444444-|
A-2--------2-2-------2-2------2-2-----|-22222222-|
E-------------------------------------|----------|

Play Until Chorus


Chorus
e------------------------------------------------|
B---77-x---44-x---00-x---66----------------------|
G---66-x---44-x---44-x---66--x3------------------|
D------------------------------------------------|
A-6------2-------------4-------------------------|
E---------------4--------------------------------|


e------------------------------------------------|
B---4-4--------4-4-------4-4------4-4------------|
G---3-3--------3-3-------3-3------3-3------------|
D---4-4--------4-4-------4-4------4-4------------|
A-2--------2-2-------2-2------2-2----------------|
E------------------------------------------------|
Repeat Whole Song Again

"Leave Me Alone..."
e------------------------------------------------|
B-6-66-66-6-66-6666--4-44-44-4-44-4444-----------|
G-5-55-55-5-55-5555--3-33-33-3-33-3333--x4-------|
D-6-66-66-6-66-6666--4-44-44-4-44-4444-----------|
A-4-44-44-4-44-4444--2-22-22-2-22-2222-----------|
E------------------------------------------------|


e------------------------------------------------|
B---77-x---44-x---00-x---66----------------------|
G---66-x---44-x---44-x---66--x6------------------|
D------------------------------------------------|
A-6------2-------------4-------------------------|
E---------------4--------------------------------|

Ending
e------------------------------------------------|
B-44444444444444444444444------------------------|
G-33333333333333333333333------------------------|
D-44444444444444444444444------------------------|
A-22222222222222222222222------------------------|
E------------------------------------------------|
Tap to rate this tab
# A B C D E F G H I J K L M N O P Q R S T U V W X Y Z