Song name
# A B C D E F G H I J K L M N O P Q R S T U V W X Y Z

Fall Out Boy - I Dont Care tab

-----------------------------------------------------------------
I Dont Care - Fall Out Boy
-----------------------------------------------------------------
Tabbed by: FOB182

Tuning: standard (EADGBe)


arpeggiated scale
e|---------------------------------------------------------------|
B|---------------12--14-14-14~~----------------------------------|
G|11-13-14-13-14---14--------------------------------------------|
D|---------------------------------------------------------------|
A|---------------------------------------------------------------|
E|---------------------------------------------------------------|

e|---------------------------------------------------------------|
B|12h14-14-14--12h14-14-14--12h14-14-14--------------------------|
G|---------------------------------------10-10h12-10~~-----------|
D|---------------------------------------------------------------|
A|---------------------------------------------------------------|
E|---------------------------------------------------------------|

e|---------------------------------------------------------------|
B|12h14-14-14--12h14-14-14--12h14-14-14--------------------------|
G|---------------------------------------10-10h12-10~~-----------|
D|---------------------------------------------------------------|
A|---------------------------------------------------------------|
E|---------------------------------------------------------------|
get the rythm down on the above two

e|---------------------------------------------------------------|
B|10h12-10~~--10--12/14-12/10------------------------------------|
G|----------------------------11-9~~-----------------------------|
D|---------------------------------------------------------------|
A|---------------------------------------------------------------|
E|---------------------------------------------------------------|

e|8/17-17~17~17~17~17~17~17~17~17~17~17~17~17~17~17~17~17~17~17~-|
B|---------------------------------------------------------------|
G|---------------------------------------------------------------|
D|---------------------------------------------------------------|
A|---------------------------------------------------------------|
E|---------------------------------------------------------------|

e|15/------------------------------------------------------------|
B|15/------------------------------------------------------------|
G|15/------------------------------------------------------------|
D|15/------------------------------------------------------------|
A|15/------------------------------------------------------------|
E|15/-----------------------------------------------------------2|
slide your hand gently across the top of the strings instead of pushing down.

| /  slide up
| \  slide down
| h  hammer-on
| p  pull-off
| ~  vibrato
| +  harmonic
| x  Mute note

only about two or three nots are missing and they are in the arpeggiated scale. 

drop a comment.  I might tab some more songs sometime soon.

Tap to rate this tab
# A B C D E F G H I J K L M N O P Q R S T U V W X Y Z