Song name
# A B C D E F G H I J K L M N O P Q R S T U V W X Y Z

Fall Out Boy - Snitches And Talkers Get Stiches And Walkers tab

INTRO
e)-----------|
B)-----------|
G)-----------|
D)-22222222--|
A)-22222222--|
E)-00000000--|

FILL
e)-----------------------------------------------------|
B)-12-12/11-11-11-11-11-12-----12-12/11-11-11-11-11-8--|
G)-12-12/11-11-11-11-11-12-----12-12/11-11-11-11-11-8--|
D)-9--9 /8--8--8--8--8--9------9--9 /8--8--8--8--8--5--|
A)-----------------------------------------------------|
E)-----------------------------------------------------|


VERSE
e)--------------------------------------------------------------|
B)--------------------------------------------------------------|
G)--------------------------------------------------------------|
D)-22xxxxxx--22xxxxxx--22xxxxxx--10-10--10/9--10/9--10/9--10/9--| X2
A)-22xxxxxx--22xxxxxx--22xxxxxx--10-10--10/9--10/9--10/9--10/9--|
E)-00xxxxxx--00xxxxxx--00xxxxxx--8--8---8-/7--8-/7--8-/7--8-/7--|

e)-----------------------------------------------------------|
B)-----------------------------------------------------------|
G)---79xxxx----79xxxx----79xxxx------------------------------|
D)-7979xxxx--7979xxxx--7979xxxx--799-10/9--10/9--10/9--10/9--|
A)-7957xxxx--7957xxxx--7957xxxx--799-10/9--10/9--10/9--10/9--|
E)-57--------57--------57--------577-8-/7--8-/7--8-/7--8-/7--|

				GUITAR 2
				e)---------------------------|
				B)---8/7---8/7---8/7---8/7---|
				G)---5/4---5/4---5/4---5/4---|
				D)---------------------------|
				A)---------------------------|
				E)---------------------------|
CHORUS

GUITAR 1
e)------------------------------------------------|
B)------------------------------------------------|
G)-99999999---------------------------------------|
D)-99999999-1010101010101010-77777777-99999999----|
A)-77777777-1010101010101010-77777777-99999999----|
E)----------8-8-8-8-8-8-8-8--55555555-77777777----|


GUITAR 2   	
  |----------x3-----------| 
e)------------------------------------------------|
B)-12-12-----10-10-----^8---8/7---8/7---8/7---8/7-|
G)-------9-9-------7-7------5/4---5/4---5/4---5/4-|
D)------------------------------------------------|
A)------------------------------------------------|
E)------------------------------------------------|


BRIDGE

GUITAR 1
e)------------------------------------------------|
B)------------------------------------------------|
G)-99999999---------------------------------------|
D)-99999999-1010101010101010-77777777-99999999----|
A)-77777777-1010101010101010-77777777-99999999----|
E)----------8-8-8-8-8-8-8-8--55555555-77777777----|

				GUITAR 2
			e)------------------------|
			B)------------^11---------|
			G)------------------------|
			D)------------------------|
			A)------------------------|
			E)------------------------|

GUITAR 2
  |-------x2-------|
e)------------------------------------------------|
B)----------------------------------------12-12---|
G)-9999-11-12-11-9---99999999-77-99-11-11---------|
D)----------------------------------------9--9----| X2
A)-7777-9--10-9--7---77777777-55-77-9--9----------|
E)------------------------------------------------|

GUITAR 1
e)----------------------------|
B)----------------------------|
G)----------------------------|
D)-2-------3-------2-------3--|
A)-2-------3-------2-------3--|
E)-0-------1-------0-------1--|


ENDING

GUITAR 2
  |-----------x2--------------|   	
e)-------------------------------8/7---8/7---8/7---8/7--88--------|
B)--8/7---8/7---8/7---8/7--88----8/7---8/7---8/7---8/7--88---^10--|
G)--5/4---5/4---5/4---5/4--55----5/4---5/4---5/4---5/4--55--------|
D)----------------------------------------------------------------|
A)----------------------------------------------------------------|
E)----------------------------------------------------------------|

Tap to rate this tab
 
# A B C D E F G H I J K L M N O P Q R S T U V W X Y Z