Song name
# A B C D E F G H I J K L M N O P Q R S T U V W X Y Z

Fall Out Boy - Im Like A Lawyer With The Way Im Always Trying To Get You Off Me And You tab

by
f_sario@yahoo.com
Cp #-09283150081
SHC(BSN) Lucena
la lang..

    

\\\

Verse-
1.
Guitar1
|-1-1--x-x---|  -x-x-x-x--------|
|-2-2--1-1---|  -2-2-2-2--------|
|-3-3--2-2---|  -3-3-3-3--------|
|-3-3--3-3---|3x-4-4-4-4--------|
|-1-1--3-3---|  -4-4-4-4--------|
|------1-1---|  -2-2-2-2--------|



  2.

 Guitar1
|-1-1--x-x---|  -x-x-x-x--------|
|-2-2--1-1---|  -2-2-2-2--------|
|-3-3--2-2---|  -3-3-3-3--------|
|-3-3--3-3---|3x-4-4-4-4--------|
|-1-1--3-3---|  -4-4-4-4--------|
|------1-1---|  -2-2-2-2--------|



  Guitar2

|-xx-666-xx-6x---xx-666-xx-6x---xx-666-xx-6x-xxxx-x-6---|
|-xx-666-xx-66---xx-666-xx-66---xx-666-xx-66-6666-x-6---|
|-xx-666-xx-66---xx-666-xx-66---xx-666-xx-66-6666-x-6---|
|-------------------------------------------------------|
|-------------------------------------------------------|
|-------------------------------------------------------|





  Refrain-
Guitar1
|-x-x--1-1---|  -x-x-x-x--x-x-x-x---|
|-1-1--2-2---|  -4-4-4-4--6-6-6-6---|
|-2-2--3-3---|  -5-5-5-5--6-6-6-6---|
|-3-3--3-3---|2x-6-6-6-6--6-6-6-6---|
|-3-3--1-1---|  -6-6-6-6--4-4-4-4---|
|-1-1--------|  -4-4-4-4------------|



Guitar2
|----|-xx-666-66-6xx-x-x----|
|----|-xx-666-66-666-x-x----|
|----|-xx-666-96-666-x-x----|
|----|----------------------|
|----|----------------------|
|----|----------------------|



pre chorus-

Guitar1
|--------------------------------------------|
|--------------------------------------------|
|--------------------------------------------|
|-4-4-4-4-4-4-4-4--3-3-3-3-6-6-6-6-----------|
|-4-4-4-4-4-4-4-4--3-3-3-3-6-6-6-6-----------|
|-2-2-2-2-2-2-2-2--1-1-1-1-4-4-4-4-----------|
    * * * * * * *  * * * *            
                            

  Guitar2
|--------------------------------------------|
|--------------------------------------------|
|--------------------------------------------|
|--------------------------------------------|
|---4-4-4-4-4-4-4--3-3-3-3-6-6-6-6-----------|
|---2-2-2-2-2-2-2--1-1-1-1-4-4-4-4-----------|
    * * * * * * *  * * * *     

  

Chorus-
Guitar1 
|------------------------------------|--------------------------------|
|------------------------------------|--------------------------------|
|-66666666---------------------------|-3333333-66666666---------------|
|-66666666-88888888-4444444-4444444---|-3333333-66666666-4444444--6~--|
|-44444444-88888888-4444444-4444444--|-1111111-44444444--4444444--6~--|
|----------66666666-2222222-2222222--|-------------------2222222--4~--|

  

Guitar2
|------------------------------------|-----------------------------------------------|
|------------------------------------|-----------------14^-13-11---------------------|
|------------------------------------|---------------------------13-11-10----10--10~-|
|-66666666---------------------------|-3333333-66666666-------------------13---------|
|-44444444-88888888-4444444-4444444--|-1111111-44444444------------------------------|
|----------66666666-2222222-2222222--|-----------------------------------------------|


Repeat Verse.refrain

  

Chorus-

Guitar1
|------------------------------------|------------------------------------|
|------------------------------------|------------------------------------|
|-66666666---------------------------|-3333333-66666666-------------------|
|-66666666-88888888-4444444----------|-3333333-66666666--4444444444444----|
|-44444444-88888888-4444444-4444444--|-1111111-44444444--4444444444444----|
|----------66666666-2222222-2222222--|-------------------2222222222222----|

  


|------------------------------------|-----------------------------------------------|
|------------------------------------|-----------------14^-13-11---------------------|
|------------------------------------|---------------------------13-11-10----10--10~-|
|-66666666---------------------------|-3333333-66666666-------------------13---------|
|-44444444-88888888-4444444-4444444--|-1111111-44444444------------------------------|
|----------66666666-2222222-2222222--|-----------------------------------------------|


Bridge-
Guitar1
|----------------------------------|-----------------------------------|
|----------------------------------|-----------------------------------|
|-3333333----------6666666---------|-----------------------------------|
|-3333333-4444444--6666666-3333333-|-8888888-44444444--6666666-6666666-|
|-1111111-4444444--4444444-3333333-|-8888888-44444444--6666666-6666666-|
|---------2222222-------- --1111111-|-6666666-22222222--4444444-4444444-|


Guitar2
|------4-----4-----4------4-----4--|-----4-----4-----4------4-----4----|
|----6-----6-----6------6-----6----|---6-----6-----6------6-----6------|
|--6-----6-----6------6-----6------|-6-----6-----6------6-----6--------|
|----------------------------------|-----------------------------------|
|----------------------------------|-----------------------------------|

|----------------------------------|-----------------------------------|

  

Chorus3/outro-

  Guitar1
me and you...       if i...
|------------------------------------|------------------------------------|
|------------------------------------|------------------------------------|
|-6~---------------------------------|-3333333-66666666-------------------|
|-6~----------------4444444-4444444--|-3333333-66666666--4444444444444----|
|-4~----------------4444444-4444444--|-1111111-44444444--4444444444444----|
|-------------------2222222-2222222--|-------------------2222222222222----|
  

|------------------------------------|------------------------------------|
|------------------------------------|------------------------------------|
|-66666666---------------------------|-3333333-66666666-------------------|
|-66666666-88888888-4444444-4444444--|-3333333-66666666--4444444~---------|
|-44444444-88888888-4444444-4444444--|-1111111-44444444--4444444~---------|
|----------66666666-2222222-2222222--|-------------------2222222~---------|

  

Guitar2
                       if i.....
|------------------------------------|
|------------------------------------|
|------------------------------------|
|------------------------------------|
|-------------------4444444-4444444--|
|-------------------2222222-2222222--|

-----------------------------------------------|
-----------------14^-13-11---------------------|
---------------------------13-11-10----10--10~-|
-3333333-66666666-------------------13---------|
-1111111-44444444------------------------------|
-----------------------------------------------|


|------------------------------------|
|------------------------------------|
|------------------------------------|
|-66666666---------------------------|
|-44444444-88888888-4444444-4444444--|
|----------66666666-2222222-2222222--|


-----------------------------------------------|
-----------------14^-13-11---------------------|
---------------------------13-11-10----10--10~-|
-3333333-66666666-------------------13---------|
-1111111-44444444------------------------------|
-----------------------------------------------|

Tap to rate this tab
# A B C D E F G H I J K L M N O P Q R S T U V W X Y Z