Song name
# A B C D E F G H I J K L M N O P Q R S T U V W X Y Z

Fall - Mountain Energei tab

This is another great song by The Fall.Standerd tuning.Quite honestly,We couldnt 
without it! The guitar comes in on 0:38 seconds on The New Real Fall Album.

   "Mr Blairstowe and Mr.Partridge
    They Said to me,
    to get a mortgage
    you need an income letterrrrreeeerrrrr,
     e]-----------------------------------------------------------|
     b]-----------------------------------------------------------|
     g]-----9---------------------------9-----------------------9-|
     d]-----9---------------------------9-----------------------9-|
     a]-----7---------------------------7-----------------------7-|
     e]-----------------------------------------------------------|
                    "I thought it was free                                               
    Dolly Parton and lord Byron

     e]--------------------------------|
     b]--------------------------------|
     g]---------------9----------------|
     d]---------------9----------------|
     a]---------------7----------------|
     e]--------------------------------|
           They said patriotism is a last refuge      But now its me!!!!

    CHROUS

     e]-------------------------------------------------|
     b]---0-0-x-0-0-x-0-0-x-0-0-x-0-0-x-0-0-x-----x-----|
     g]---9-9-x-5-5-x-9-9-x-5-5-x-9-9-x-7-7-x-0-0-x-----|
     d]---9-9-x-5-5-x-9-9-x-5-5-x-9-9-x-7-7-x-7-7-x-5---| X2   n
     a]---7-7-x-3-3-x-7-7-x-3-3-x-7-7-x-5-5-x-7-7-x-5---|
     e]-------x-----x-----x-----x-----x------x-5-5-x-3--|
             And     water's flowing,                      a down the mountain         b]-0
             but      a tree is blocking,                The water flowing                 g]-9
                                                                                         
                      d]-9   X2
                                                          On the second time end on=          a]-7


  e]-------------------------------------------------------------------------------|
  b]-------0------------------------------0--------------------------------------0-|
  g]-------9------------------------------9--------------------------------------9-|
  d]-------9------------------------------9--------------------------------------9-|
  a]-------7------------------------------7--------------------------------------7-|
  e]-------------------------------------------------------------------------------|
 So i went fishing,A note from a fish said,Dear Dope!!,if you wanna catch us,u need a rod and a line,
 Signed the fishhhhh!

REPEAT THE FIRST CHORUS

 e]--------------------------------------------------------------|
 b]------------0---------------------------0---------------------|
 g]------------9---------------------------9---------------------|
 d]------------9---------------------------9---------------------|
 a]------------7---------------------------7---------------------|
 e]--------------------------------------------------------------|
 Went to the car rental,they said to me,you need a log book,and licence..Son
Tap to rate this tab
 
# A B C D E F G H I J K L M N O P Q R S T U V W X Y Z