Song name
# A B C D E F G H I J K L M N O P Q R S T U V W X Y Z

Feeder - Forgiven tab

SONG: FORGIVEN
TAB BY: ALEX BALL (Al_Fish18@hotmail.com)
Edited By Stuart Johnson

INTRO:

E|--------|
B|--------|
G|--------|
D|--------|
A|--19\---| (listen to the CD for the speed of the slide)
E|--------|

VERSE RIFF: Alternates between these two chords:

     A9       Emaj
E|---0--------0---|
B|---0--------0---|
G|--14-------13---|
D|--14-------14---|
A|----------------|
E|----------------|

LINK TO CHORUS: Pick around these chords:

E|--0----0---|
B|--0----0---|
G|--4----5---|
D|--4----5---|
A|--2----3---|
E|-----------|

CHORUS: Strum these chords:

    E   Bsus4 C#m Amaj9
E|--0---0-----0---0---|
B|--0---0-----5---0---|
G|--1---4-----6---6---|
D|--2---4-----6---7---|
A|--2---2-----4---7---|
E|--0-------------5---|
Tap to rate this tab
# A B C D E F G H I J K L M N O P Q R S T U V W X Y Z