Guitaretab - guitar tabs
Song name
# A B C D E F G H I J K L M N O P Q R S T U V W X Y Z
Home / F / Finch / Frail tab

Finch - Frail tab

This is my first Tab so please don't be hard.

Tuning = Drop D (DADGBe)
/ = Slide

The Song is

Intro/Verse
Chrus
Verse
Chorus
Breakdown
Verse
Chorus
Breakdown
Chorus

Intro/Verse (find our strum pattern yourself)
e----x---x----|
B----x---x----|
G----x---x----|
D----6---7----|
A----4---0----|
D----4---0----|
Play x2 then start singing "Kiss the sun...." until refrain...


Chorus x4
e------------------------------------------------------------------------|
B------------------------------------------------------------------------|
G------------------------------------------------------------------------|
D----4/7--7---4------44-44-44-44-44------7--77-7--77-7--777777-----------|
A----4----0---4------44-44-44-44-44------0--00-0--00-0--000000-----------|
D----4----0---4------44-44-44-44-44------0--00-0--00-0--000000-----------|
[ Tab from: http://www.guitaretab.com/f/finch/120990.html ]
Refrain wehen repeated is nearly The Same but the only difference is
that the third pair of 4 (44) is a single one and on the place of the other
one is a little delay...

Breakdown (Figure out Strumming yourself) x2
e------------------------------------------------------------------------|
B------------------------------------------------------------------------|
G-----9--7--7--6--7------------------------------------------------------|
D-----9--7--7--6--7------------------------------------------------------|
A-----7--5--0--4--5------------------------------------------------------|
D-----7--5--0--4--5------------------------------------------------------|
Start singing "Inside I'll wait!" on the second chord two strums befor
changing to the third

Last Chorus Play 8 times but the last repetion only half like:

e------------------|
B------------------|
G------------------|
D----4/7--7---4----|
A----4----0---4----|
D----4----0---4----|


Hope you enjoy playing this wonderfull song...
Related for Frail tab
Frail chords by Finch