Song name
# A B C D E F G H I J K L M N O P Q R S T U V W X Y Z

Fionn Regan - Underwood Typewriter tab

Help us improve GuitareTab! Take a short survey!
Q=220 
4/4 
||-----5-----5----|---------------|------0-------| 
||o------5--------|----5-----5----|-3------------| 
||-----5-------5--|------4-----4--|--------------| 
||---3-----3------|----5----------|----3------3--| 
||o---------------|-3------3------|-2------2-----| 
||----------------|---------------|--------------| 


|-------0--------|----------0-----|-3p0---3----0--|----------------| 
|---0h3-----3----|----1-0-----1---|---------------|-1--------1-----| 
|----------------|--------------2-|-----3------3--|----2-0h2-------| 
|-----3-------3--|----2-------2---|---------------|----0-------0-0-| 
|-2-------2------|-0------0-------|-1-------1-----|----------------| 
|----------------|----------------|---------------|-3------3-------| 

|-------------0----||----| 
|---1-------1---0-o||----| 
|---0-------0------||----| 
|-3---0------------||----| 
|-------0-3-------o||----| 
|-3-------3--------||----| 


3/4 
||--3-------|-2-------|-2-------|-0-------|---------|----------||---| 
||o-----1---|-----1---|-----0---|-----0---|-3-------|-2-------o||---| 
||----2---2-|---2---2-|---0---0-|---0---0-|-----0---|-----0----||---| 
||--0-------|-0-------|---------|---------|---2---2-|---2---2--||---| 
||o---------|---------|---------|---------|-0-------|-0-------o||---| 
||----------|---------|-5-------|-5-------|---------|----------||---| 

4/4 
|----------|---------|---------|-------0------|---------|----| 
|--3-------|-2-------|---------|-0h2----------|-2-------|----| 
|----0---0-|---0---0-|---0---0-|-----0-----0--|---0---0-|----| 
|----2---2-|---2---2-|---2---2-|-----2-----2--|---2---2-|----| 
|--0---0---|-0---0---|-0---0---|-0-------0----|-0---0---|----| 
|----------|---------|---------|--------------|---------|----| 


||----------|---------|-----------0-|-----------|-0---------|---0------| 
||o-1-------|---------|-----0h1-----|---1-------|-----1-----|-----1----| 
||----------|-0-------|-2-----------|-------2---|---------2-|-------2--| 
||----2---2-|---0---0-|---0-----0---|---0-----0-|---0-----0-|---0---0--| 
||o-0---0---|---------|-------------|-----------|-----------|----------| 
||----------|-2---2---|-3---3-------|-3---3-----|-3-----3---|-3---3----| 


|-------------|-------------|-------------0-| 
|-0-----------|-------------|-------0h1-----| 
|-------------|-0-----------|-2-------------| 
|----0-----0--|----0-----0--|----0------0---| 
|-------------|-------------|---------------| 
|-5-----5-----|-2-----2-----|-3-----3-------| 


|--------------|-0------------|----0---------||-| 
|----1---------|------1-------|-------1-----o||-| 
|---------2----|-----------2--|----------2---||-| 
|----0------0--|----0------0--|----0-----0---||-| 
|--------------|--------------|-------------o||-| 
|-3-----3------|-3------3-----|-3-----3------||-| 





	
Related for Underwood Typewriter tab