Song name
# A B C D E F G H I J K L M N O P Q R S T U V W X Y Z

Fionn Regan - Abacus tab

artist: fionn regan
song: abacus
http://www.fionnregan.com

capo 4th fret

intro
d|-----------------------0---------------0---------------0---------|
a|-------0-------0---------------0---------------0---------------0-|
g|---7-------7-------6-------6-------4-------4-------2-------2-----|
d|-----0-------0-------0-------0-------0-------0-------0-------0---|
a|-9-------9-------7-------7-------5-------5-------4-------4-------|
d|-----------------------------------------------------------------|

d|---------------2-------0-----------------------4-------0---------|
a|-------0-----------------------0-------0-----------------------0-|
g|---0-------0-------0-------0-------0-------0-------0-------0-----|
d|-----0-------0-------0-------0-------0-------0-------0-------0---|
a|-2-------2-------2-------2-------4-------4-------4-------4-------|
d|-----------------------------------------------------------------|

d|-------0---------------0---------------5---------------4---------|
a|---------------0---------------0---------------0---------------0-|
g|---7-------7-------6-------6-------4-------4-------2-------2-----|
d|-----0-------0-------0-------0-------0-------0-------0-------0---|
a|-9-------9-------7-------7-------5-------5-------4-------4-------|
d|-----------------------------------------------------------------|

d|---------------2-------0-----------------------4-------0---------|
a|-------0-----------------------0-------0-----------------------0-|
g|---0-------0-------0-------0-------0-------0-------0-------0-----|
d|-----0-------0-------0-------0-------0-------0-------0-------0---|
a|-2-------2-------2-------2-------4-------4-------4-------4-------|
d|-----------------------------------------------------------------|

verse
d|-----------------------0---------------0---------------0---------|
a|-------0-------0---------------0---------------0---------------0-|
g|---7-------7-------6-------6-------4-------4-------2-------2-----|
d|-----0-------0-------0-------0-------0-------0-------0-------0---|
a|-9-------9-------7-------7-------5-------5-------4-------4-------|
d|-----------------------------------------------------------------|

d|---------------0-----------------------0---------------0---------|
a|-------0---------------0-------0-------0-------0---------------0-|
g|---0-------0-------0-------0-------0-------0-------0-------0-----|
d|-----0-------0-------0-------0-------0-------0-------0-------0---|
a|-2-------2-------2-------2-------4-------4-------4-------4-------|
d|-----------------------------------------------------------------|

d|-----------------------0---------------0---------------0---------|
a|-------0-------0---------------0---------------0---------------0-|
g|---7-------7-------6-------6-------4-------4-------2-------2-----|
d|-----0-------0-------0-------0-------0-------0-------0-------0---|
a|-9-------9-------7-------7-------5-------5-------4-------4-------|
d|-----------------------------------------------------------------|

d|---------------0-------------------------------4-------0---------|
a|-------0---------------0-------0-------0-------0-------0-------0-|
g|---0-------0-------0-------0-------0-------0-------0-------0-----|
d|-----0-------0-------0-------0-------0-------0-------0-------0---|
a|-2-------2-------2-------2-------4-------4-------4-------4-------|
d|-----------------------------------------------------------------|

chorus
d|-------------------------------------------------------0---------|
a|-------0-------0-------0-------0-------0-------0---------------0-|
g|---4-------4-------0-------0-------7-------7-------0-------0-----|
d|-----0---0---0-------0-------0-------0-------0-------0-------0---|
a|-2---------------4-------7-------9-------9-----------------------|
d|-------------------------------------------------5-------5-------|

d|-------0---------------0---------------0---------------0---------|
a|---------------0-------0-------0-------0-------0---------------0-|
g|---0-------0-------0-------0-------0-------0-------4-------4-----|
d|-----0-------0-------0-------0-------0-------0-------0---0---0---|
a|-------------------------------------------------2---------------|
d|-5-------5-------7-------7-------9-------9-----------------------|

d|-----------------------0-----------------------0---------------0-|
a|-------0-------0-------0-------0-------0---------------0---------|
g|---0-------0-------7-------7-------0-------0-------0-------0-----|
d|-----0-------0-------0-------0-------0-------0-------0-------0---|
a|-4-------7-------9-------9---------------------------------------|
d|---------------------------------5-------5-------5-------5-------|

d|---------------0---------------0-------0---------------0---------|
a|-------0---------------0-----------------------0---------------0-|
g|---0-------0-------0-------0-------0-------0-------0-------0-----|
d|-----0-------0-------0-------0-------0-------0-------0-------0---|
a|-----------------------------------------------------------------|
d|-7-------7-------9-------9-------5-------5-------7-------7-------|

d|-------0---------------0---------------0-------0-----------------|
a|---------------0---------------0-----------------------0-------0-|
g|---0-------0-------0-------0-------7-------7-------9-------9-----|
d|-----0-------0-------0-------0-------0-------0-------0-------0---|
a|---------------------------------9-------9------10------10-------|
d|-9-------9------11------11---------------------------------------|
                                    _________________________________
                                   | end
d|-------0---------------0---------|-------0---------------0---------|
a|---------------0---------------0-|---------------0---------------0-|
g|---7-------7-------9-------9-----|---7-------7-------6-------6-----|
d|-----0-------0-------0-------0---|-----0-------0-------0-------0---|
a|-9-------9------10------10-------|-9-------9-------7-------7-------|
d|---------------------------------|---------------------------------|
 ____________________________________________________________________
 						                     |
d|-------0---------------0---------------0---------------0---------0-|
a|---------------0---------------0-------0-------0-------0-------0-0-|
g|---7-------7-------9-------9-------7-------7-------6-------6-----7-|
d|-----0-------0-------0-------0-------0-------0-------0-------0---0-|
a|-9-------9------10------10-------9-------9-------7-------7-------5-|
d|-------------------------------------------------------------------|
Tap to rate this tab
# A B C D E F G H I J K L M N O P Q R S T U V W X Y Z