Song name
# A B C D E F G H I J K L M N O P Q R S T U V W X Y Z

Fireball Ministry - King tab

Help us improve GuitareTab! Take a short survey!
KING
     
Tuned 1/2 step down

          Riff 1:         (5)= 2nd guitar
|------|---------------------------------------------------|
|------|---------------------------------------------------|
|------|-o------------------------------------------------o|
|------|-o---(5)(5)(3)------------------------------------o|
|------|------7--7--5--------------------------------------|
|-/14\-|---0-------------3/0--0--3----5--3--5^r--3--0--0---|

          Riff 2:             
                    1=========|2============  
|----------------------------|----------------|
|----------------------------|----------------|
|---------5----------------o-|--------------o-|
|--7-7-7--3--5-5-----------o-|--------------o-|
|--5-5-5-----3-3----3/5-5----|--3-------------|
|-------------------1/3-3----|--1-------------|

          Riff 3:
|-----------------------------------|
|-----------------------------------|
|---------------------------------o-|
|---------------------------------o-|
|---6-------------------------------|
|---------6----------5------3-------|

          Riff 4:
    p.m.............
|-----------------------|----------------------------------------|
|-----------------------|----------------------------------------|
|-----------------------|-o------------------------------------o-|
|-----------------------|-o-7-777775-555555--------------------o-|
|---5555555555555555\---|---5-555553-3333333--3--3335-55-6-533---|
|---3333333333333333\---|------------------1--1--1113-33-4-311---|

          Riff 5:
|-----------------------------------|
|-----------------------------------|
|---------------------------------o-|
|---------------------------------o-|
|----------6------------------------|
|----6---------------5------3-------|
Related for King tab