Song name
# A B C D E F G H I J K L M N O P Q R S T U V W X Y Z

Fireball Ministry - Sinner tab

THE SINNER

Tuned 1/2 step down

          Riff 1:
                                           X3   (5)= 2nd guitar
|-------|------------------------------------|----------------------|
|-------|------------------------------------|----------------------|
|-------|------------------------------------|--(5)^(3)--(5)^(3)--o-|
|-------|-o--------------------------------o-|--------------------o-|
|-------|-o------------------3------5---3--o-|-------3--------3-----|
|--14\--|----3--5-5--5-5-5-5------5----------|---3--------2---------|

          Riff 2:
                             X3
|--------------------------------|-----------------------------|                                          
|-o----------------------------o-|-----------------------------|
|-o----------------------------o-|-----------------------------|
|--------3--------3--------3-----|-----------------------------|
|---3--------2--------1----------|---3--------2--------1-------|

          Riff 3:
|--------------------------------------------------------|
|--------------------------------------------------------|
|------------------------------------------------------o-|
|------------------------------------------------------o-|
|--------------------3---3-3-3-------------5----5-5-5----|
|----3--5-5--5-5-5-5-----------3-----3-3-3---------------|

          Riff 4:
|------------------------------------------------|
|------------------------------------------------|
|-o--------------------------------------------o-|
|-o-------------5----5--5-----------7----7--7--o-|
|----5---7-7--7-3----3--3-5----5--5-5----5--5----|
|----3---5-5--5-----------3----3--3--------------|
Tap to rate this tab
# A B C D E F G H I J K L M N O P Q R S T U V W X Y Z