Flat Duo Jets - Im Sorry tab

I sat around playing with this song for about half an hour and then it came to. I see 
nobodies put anything up for this awesome band. Pretty simple blues tho.
E |-----------------------|
B |-----------------------|
G |-----------------------|
D |-----------------------| REPEAT AS NECESSARY
A |---4-2-4-2---4-2-4-2---|
E |-0---------2---------0-|
BRIDGE
E |-----------------------------------|
B |-----------------------------------|
G |-----------------------------------|
D |-----------------------2-0-0-------|
A |--------0--0-------0-2-------4-2-0-|
E |-0-2-4-------4-2-0-----------------|
Chorus
E |-----------------0-0-0-0-0-0-0-0-|
B |-2-2-2-2-1-1-1-1-0-0-3-3-0-0-3-3-|
G |-2-2-2-2-2-2-2-2-1-1-1-1-1-1-1-1-|
D |-2-2-2-2-2-2-2-2-2-2-0-0-2-2-0-0-|
A |-0-0-0-0-0-0-0-0-2-2-2-2-2-2-0-0-|
E |-----------------0-0-0-0-0-0-0-0-|

http://www.facebook.com/pages/Flat-Duo-Jets/261344659850
Tap to rate this tab
 
# A B C D E F G H I J K L M N O P Q R S T U V W X Y Z