Song name
# A B C D E F G H I J K L M N O P Q R S T U V W X Y Z

Flatfoot 56 - Fight To Live tab

this played with a pipe..... 
but guitar doing it as well... =)
www.flatfoot56.com

----------------15-15-13-13----------------|
-11-13-15-13-11-------------11-13-15-13-11-|
-------------------------------------------|
-------------------------------------------|
-------------------------------------------|
-------------------------------------------|


-11-13-11----------------------------------|
----------15-13-15-11----------------------|
-------------------------------------------|
-------------------------------------------|
-------------------------------------------|
-------------------------------------------|
Tap to rate this tab
# A B C D E F G H I J K L M N O P Q R S T U V W X Y Z