Song name
# A B C D E F G H I J K L M N O P Q R S T U V W X Y Z

Flaw - Crutch tab

Crutch from Flaw
Tuning: BEADGBe(7 string) or just BEADGB if you don't have a 7 string.

Intro
------------------------|
------------------------|
------------------------|
----7----7----7----7----|
----6----6----6----5----|
----5----5----5----5-2~-|
-00---00---00---00---0~-|
 ..   ..   ..   ..
Main
------------------|
------------------|
------------------|
------------------|
------------------|
-22-55-22-752-575-|
-00-33-00-530-353-|

last line of Main:
----------------------|
----------------------|
----------------------|
----------------------|
----------------------|
-22-55-22-752-7-5-3-2-|
-00-33-00-530-5-3-1-0-|

Verse
--------------------|
--------------------|
--------------------|
----7----7----7---9-|
----6----6----6---8-|
----5----5----5---7-|
-00---00---00---0---|
 ..   ..   ..   .
------------------------|
------------------------|
------------------------|
----7----7----7---7/8\7-|
----6----6----6---6/7\5-|
----5----5----5---5/6\5-|
-00---00---00---0-------|
 ..   ..   ..   .

-play Main
-play Verse
-play Main
**Bass interlude played here**

Fill at end of bass interlude:
-----------------|
-----------------|
-----------------|
---------------7-|
---------------6-|
-2222-22-5/7-5-5-|
-0000-00-3/5-3---|

Interlude(play around with this a bit)
------------------|
------------------|
------------------|
------------------|
------------------|
-2222-22-5/7-5-7b-|
-0000-00-3/5-3-5b-|

-----------------|
-----------------|
-----------------|
-----------------|
-----------------|
-2222-22-5/7-5-3-|
-0000-00-3/5-3-1-|

-play Main

Outro
-----------------------|
-----------------------|
-----------------------|
-----------------------|
-----------------------|
----2----2----2----2-3-|
-00-0-00-0-00-0-00-0-1-|
 ..   ..   ..   ..
Tap to rate this tab
# A B C D E F G H I J K L M N O P Q R S T U V W X Y Z