Song name
# A B C D E F G H I J K L M N O P Q R S T U V W X Y Z

Floater - Cinema tab

*****************************************************************************
                          FLOATER-CINEMA~~~~FROM-GLYPH
*****************************************************************************

It is important to note that floater is a very bass heavy band.
 And the guitar tone is also very bass heavy. 
It is easy to confuse the two. 
And you also should remember that floater 
plays their songs differently quite when they are playing live.

turning your tone pot down all the way helps get the tone right.

0:02 
E-----------------------------------|
B-----------------------------------|
G-----------------------------------|
D--------(2)------------------------|
A--------(2)------------------------|
E--------(0)------------------------|

0:10
E-----------------------------------|
B-----------------------------------|
G-----------------------------------|
D--------(2)------------------------|
A--------(2)------------------------|
E--------(0)------------------------|



0:12                                                                   x3
E-----------------------------------|-----------------------------------|
B-----------------------------------|-----------------------------------|
G-----------------------------------|-----------------------------------|
D-22------22------22------22--------|-33------33------------------------|
A-22------22------22------22--------|-33------33------------------------|
E-00-0000-00-0000-00-0000-00-0000---|-11-1111-11-11-/`00000000000-------|
     ....    ....    ....    ....        ....    ..   ...........
0:34
E-----------------------------------|-----------------------------------|
B-----------------------------------|-----------------------------------|
G-----------------------------------|-----------------------------------|
D-22------22------22------22--------|-33------33------------------------|
A-22------22------22------22--------|-33------33------------------------|
E-00-0000-00-0000-00-0000-00-0000---|-11-1111-11-11---------------------|
     ....    ....    ....    ....        ....    ..


0:41                                                                  x5
E-----------------------------------|-----------------------------------|
B-----------------------------------|-----------------------------------|
G-----------------------------------|-----------------------------------|
D-22------22------22------22--------|-33------33------33-------3-5------|
A-22------22------22------22--------|-33------33------33-------3-5------|
E-00-0000-00-0000-00-0000-00-0000---|-11-1111-11-1111-11-1111--1-3------|
     ....    ....    ....    ....        ....    ....    ....

1:11
E-----------------------------------|-----------------------------------|
B-----------------------------------|-----------------------------------|
G-----------------------------------|-----------------------------------|
D-22------22------22------22--------|-33------33------33-3/55/3---------|
A-22------22------22------22--------|-33------33------33-3/55/3---------|
E-00-0000-00-0000-00-0000-00-0000---|-11-1111-11-1111-11-1/33/1---------|
     ....    ....    ....    ....        ....    ....    

1:18       He hits Random harmonics through here                      x2
E-----------------------------------|-----------------------------------|
B-----------------------------------|-----------------------------------|
G-----------------------------------|-----------------------------------|
D-22------22------22------22--------|-33------33------------------------|
A-22------22------22------22--------|-33------33------------------------|
E-00-0000-00-0000-00-0000-00-/`0000-|-11-1111-11-/`0--------------------|
     ....    ....    ....                ....    


1:33                                                                  x3
E-----------------------------------|-----------------------------------|
B-----------------------------------|-----------------------------------|
G-----------------------------------|-----------------------------------|
D-22------22------22------22--------|-33------33------33-------3-5------|
A-22------22------22------22--------|-33------33------33-------3-5------|
E-00-0000-00-0000-00-0000-00-0000---|-11-1111-11-1111-11-1111--1-3------|
     ....    ....    ....    ....        ....    ....    ....

1:55
E-----------------------------------|-----------------------------------|
B-----------------------------------|-----------------------------------|
G-----------------------------------|-----------------------------------|
D-22------22------22------22--------|-33------33------33-3/55/3---------|
A-22------22------22------22--------|-33------33------33-3/55/3---------|
E-00-0000-00-0000-00-0000-00-0000---|-11-1111-11-1111-11-1/33/1---------|
     ....    ....    ....    ....        ....    ....


2:03
E-----------------------------------|-----------------------------------|
B-----------------------------------|-----------------------------------|
G-----------------------------------|-----------------------------------|
D--(2)----------------(3)-----------|-----(2)--------(3)--------2--3535-|
A--(2)----------------(3)-----------|-----(2)--------(3)--------2--3535-|
E--(0)------------013-(1)-----------|-012-(0)----013-(1)--/`000-0--1313-|
                  ...                 ...        ...                  

2:22                              x3
E-----------------------------------|
B-----------------------------------|
G-----------------------------------|
D--22-3-55-5/3--22-3-55-5b----------|
A--22-3-55-5/3--22-3-55-5b----------|
E--00-1-33-3/1--00-1-33-3b----------|


2:35
E-----------------------------------|
B-----------------------------------|
G-----------------------------------|
D--22-3-55-5/3--22-33-333-2---------|
A--22-3-55-5/3--22-33-333-2---------|
E--00-1-33-3/1--00-11-111-0---------|

2:39                              x5
E-----------------------------------|
B-----------------------------------|
G-----------------------------------|
D------3(2)-----2(3)----------------|
A------3(2)-----2(3)----------------|
E------1(0)-----0(1)----------------|
       .        .

3:17
E-----------------------------------|-----------------------------------|
B-----------------------------------|-----------------------------------|
G-----------------------------------|-----------------------------------|
D---22-----22-----22-----22---------|--33-----33-----33-----3-----------|
A---22-----22-----22-----22---------|--33-----33-----33-----3-----------|
E---00--0--00--0--00--0--00---0-----|--11--0--11--0--11--0--1--2*-------|

3:25
E-----------------------------------|-----------------------------------|
B-----------------------------------|-----------------------------------|
G-----------------------------------|-----------------------------------|
D---22-----22-----22-----22---------|--33-----33------------------------|
A---22-----22-----22-----22---------|--33-----33------------------------|
E---00--0--00--0--00--0--00---0-----|--11--0--11--/`01111111------------|


3:32                                                                   x4 
E-----------------------------------|-----------------------------------|
B-----------------------------------|-----------------------------------|
G-----------------------------------|-----------------------------------|
D-22------22------22------22--------|-33------33------33-------3-5------|
A-22------22------22------22--------|-33------33------33-------3-5------|
E-00-0000-00-0000-00-0000-00-0000---|-11-1111-11-1111-11-1111--1-3------|
     ....    ....    ....    ....        ....    ....    ....

4:02
E-----------------------------------|-----------------------------------|
B-----------------------------------|-----------------------------------|
G-----------------------------------|-----------------------------------|
D-22------22------22------22--------|-33------33------33-3/55/3---------|
A-22------22------22------22--------|-33------33------33-3/55/3---------|
E-00-0000-00-0000-00-0000-00-0000---|-11-1111-11-1111-11-1/33/1---------|
     ....    ....    ....    ....        ....    ....

4:10
E-----------------------------------|-----------------------------------|
B-----------------------------------|-----------------------------------|
G-----------------------------------|-----------------------------------|
D--(2)----------------(3)-----------|-----(2)--------(3)--------2--3535-|
A--(2)----------------(3)-----------|-----(2)--------(3)--------2--3535-|
E--(0)------------013-(1)-----------|-012-(0)----013-(1)--------0--1313-|
                  ...                 ...        ...                  

4:28
E-----------------------------------|
B-----------------------------------|
G-----------------------------------|
D--22-3-55-5/3--22-3-55-5b----------|
A--22-3-55-5/3--22-3-55-5b----------|
E--00-1-33-3/1--00-1-33-3b----------|

4:33
E-----------------------------------|
B-----------------------------------|
G-----------------------------------|
D--22-3-55-5/3--22-33-333-2---------|
A--22-3-55-5/3--22-33-333-2---------|
E--00-1-33-3/1--00-11-111-0---------|


4:39
E-----------------------------------|
B-----------------------------------|
G-----------------------------------|
D----(2)-------------(2)------(2)---|
A----(2)----(`7)-----(2)------(2)---|
E----(0)----(`7)-----(0)------(0)---|
*****************************************************************************
legend:
. palm mute
, slight palm mute
/ slide
h hammer on
p pull of
* pinch harmonic
() hold note
` harmonic
^ pull up on whammy bar
/` sliding harmonics
*****************************************************************************
LYRICS:

Through my little fingers, through my little fingers it goes.
In my eyes a cinema. In my eyes a cinema.
The sun is touching me. The sun is touching me so strange.
Through my little fingers it goes, through my little fingers.
I carry it beneath my tongue.
It says, "I welcome you to life."
It says, "I help you up that tree."
"I break the leash you go mad and unchained.
And if you follow me, know that the road will end.
But if you follow me, break but never bend.
Break." 
 
Tap to rate this tab
 
# A B C D E F G H I J K L M N O P Q R S T U V W X Y Z