Song name
# A B C D E F G H I J K L M N O P Q R S T U V W X Y Z

Flyleaf - Broken Wings tab

Broken Wings Ė Flyleaf

Tuning: Drop D
Level: Easy
Tabbed by: notgonnadie

This song is really fun to play (with both rhythm guitar and lead) and I thought Iíd put
up a tab on here so you guys can play it. This song is really easy, and it sounds good,
about 99.9% correct. So, I hope you like it and be sure to check out my other tabs. 
Enjoy! (I will add more lead guitar parts in the future)

Verse 1

E---------------------------------|
B---------------------------------|
G---------------------------------|
D-4-4-7-7-0-0-0-0-4-4-2-2-0-0-0-0-|
A-4-4-7-7-0-0-0-0-4-4-2-2-0-0-0-0-|
D-4-4-7-7-0-0-0-0-4-4-2-2-0-0-0-0-|
Thank you for being such a friend to me, oh I pray a friend for life

E---------------------------------|
B---------------------------------|
G---------------------------------|
D-4-4-7-7-0-0-0-0-4-4-2-2-0-0-0-0-|
A-4-4-7-7-0-0-0-0-4-4-2-2-0-0-0-0-|
D-4-4-7-7-0-0-0-0-4-4-2-2-0-0-0-0-|
And have I ever told you just what you mean to me, oh youíre everything to me

E---------------------------------|
B---------------------------------|
G---------------------------------|
D-4-4-4-4-2-2-2-2-0-0-0-0-0-0-0-0-|
A-4-4-4-4-2-2-2-2-0-0-0-0-0-0-0-0-|
D-4-4-4-4-2-2-2-2-0-0-0-0-0-0-0-0-|
And I am so lost for words

E---------------------------------|
B---------------------------------|
G---------------------------------|
D-4-4-4-4-2-2-2-2-0-0-0-0-0-0-0-0-|
A-4-4-4-4-2-2-2-2-0-0-0-0-0-0-0-0-|
D-4-4-4-4-2-2-2-2-0-0-0-0-0-0-0-0-|
And I am so overwhelmed

Verse 2

E---------------------------------|
B---------------------------------|
G---------------------------------|
D-4-4-7-7-0-0-0-0-4-4-2-2-0-0-0-0-|
A-4-4-7-7-0-0-0-0-4-4-2-2-0-0-0-0-|
D-4-4-7-7-0-0-0-0-4-4-2-2-0-0-0-0-|
Please donít go just yet, can you stay a moment, please?

E---------------------------------|
B---------------------------------|
G---------------------------------|
D-4-4-7-7-0-0-0-0-4-4-2-2-0-0-0-0-|
A-4-4-7-7-0-0-0-0-4-4-2-2-0-0-0-0-|
D-4-4-7-7-0-0-0-0-4-4-2-2-0-0-0-0-|
We can dance forever, we can dance forever

E------------------------------------------------|
B------------------------------------------------|
G------------------------------------------------|
D-4-4-4-4-2-2-2-2-0-0-0-0-0-0-0-0-0-0-0-0-0-0-0--|
A-4-4-4-4-2-2-2-2-0-0-0-0-0-0-0-0-0-0-0-0-0-0-0--|
D-4-4-4-4-2-2-2-2-0-0-0-0-0-0-0-0-0-0-0-0-0-0-0--|
Under you stars tonight

E------------------------------------------------|
B------------------------------------------------|
G------------------------------------------------|
D-4-4-4-4-2-2-2-2-0-0-0-0-0-0-0-0-0-0-0-0-0-0-0--|
A-4-4-4-4-2-2-2-2-0-0-0-0-0-0-0-0-0-0-0-0-0-0-0--|
D-4-4-4-4-2-2-2-2-0-0-0-0-0-0-0-0-0-0-0-0-0-0-0--|
And I am so overwhelmed
Chorus

E---|
B---|
G---|
D-0-|
A-0-|
D-0-|
Carried by thousand broken

E---------------------------------|
B---------------------------------|
G---------------------------------|
D-4-4-4-4-4-4-4-4-2-2-2-2-2-2-2-2-|
A-4-4-4-4-4-4-4-4-2-2-2-2-2-2-2-2-|
D-4-4-4-4-4-4-4-4-2-2-2-2-2-2-2-2-|
wings

E---------------------------------|
B---------------------------------|
G---------------------------------|
D-0-0-0-0-0-0-0-0-0-0-0-0-0-0-0-0-|
A-0-0-0-0-0-0-0-0-0-0-0-0-0-0-0-0-|
D-0-0-0-0-0-0-0-0-0-0-0-0-0-0-0-0-|
(At the end) A thousand broken

E---------------------------------|
B---------------------------------|
G---------------------------------|
D-4-4-4-4-4-4-4-4-2-2-2-2-2-2-2-2-|
A-4-4-4-4-4-4-4-4-2-2-2-2-2-2-2-2-|
D-4-4-4-4-4-4-4-4-2-2-2-2-2-2-2-2-|
wings

E---------------------------------|
B---------------------------------|
G---------------------------------|
D-0-0-0-0-0-0-0-0-0-0-0-0-0-0-0-0-|
A-0-0-0-0-0-0-0-0-0-0-0-0-0-0-0-0-|
D-0-0-0-0-0-0-0-0-0-0-0-0-0-0-0-0-|

Solo Rhythm

E---------------------------------|
B---------------------------------|
G---------------------------------|
D-4-4-4-4-4-4-4-4-2-2-2-2-2-2-2-2-|
A-4-4-4-4-4-4-4-4-2-2-2-2-2-2-2-2-|
D-4-4-4-4-4-4-4-4-2-2-2-2-2-2-2-2-|

E---------------------------------|
B---------------------------------|
G---------------------------------|
D-0-0-0-0-0-0-0-0-0-0-0-0-0-0-0-0-|
A-0-0-0-0-0-0-0-0-0-0-0-0-0-0-0-0-|
D-0-0-0-0-0-0-0-0-0-0-0-0-0-0-0-0-|

Solo Lead

E---------------------------------------|
B-------20------20--20------------------|
G-14-14----14-14--14----13-14-13-14-13--|
D---------------------------------------|
A---------------------------------------|
D---------------------------------------|

E---------------------------------------|
B---------------------------------------|
G----------14-13-14-13------------------|
D-14-12-11-------------14-12-14-12-14-12|
A---------------------------------------|
D---------------------------------------|

E---------------------------------------|
B---------------------------------------|
G-14-14-14-13-13-13-14------------------|
D---------------------------------------|
A---------------------------------------|
D---------------------------------------|


Bridge

E------------------------------------------------|
B------------------------------------------------|
G------------------------------------------------|
D-4-4-4-4-2-2-2-2-0-0-0-0-0-0-0-0-0-0-0-0-0-0-0--|
A-4-4-4-4-2-2-2-2-0-0-0-0-0-0-0-0-0-0-0-0-0-0-0--|
D-4-4-4-4-2-2-2-2-0-0-0-0-0-0-0-0-0-0-0-0-0-0-0--|
So close your eyes donít dream too deep, and please pass me some memories

E------------------------------------------------|
B------------------------------------------------|
G------------------------------------------------|
D-4-4-4-4-2-2-2-2-0-0-0-0-0-0-0-0-0-0-0-0-0-0-0--|
A-4-4-4-4-2-2-2-2-0-0-0-0-0-0-0-0-0-0-0-0-0-0-0--|
D-4-4-4-4-2-2-2-2-0-0-0-0-0-0-0-0-0-0-0-0-0-0-0--|
And when I fall youíre underneath a thousand broken hearts! Carried by thousand broken

Chorus

E---------------------------------|
B---------------------------------|
G---------------------------------|
D-4-4-4-4-4-4-4-4-2-2-2-2-2-2-2-2-|
A-4-4-4-4-4-4-4-4-2-2-2-2-2-2-2-2-|
D-4-4-4-4-4-4-4-4-2-2-2-2-2-2-2-2-|
wings

E---------------------------------|
B---------------------------------|
G---------------------------------|
D-0-0-0-0-0-0-0-0-0-0-0-0-0-0-0-0-|
A-0-0-0-0-0-0-0-0-0-0-0-0-0-0-0-0-|
D-0-0-0-0-0-0-0-0-0-0-0-0-0-0-0-0-|

Outro

E---------------------------------|
B---------------------------------|
G---------------------------------|
D-4-4-4-4-4-4-4-4-2-2-2-2-2-2-2-2-|
A-4-4-4-4-4-4-4-4-2-2-2-2-2-2-2-2-|
D-4-4-4-4-4-4-4-4-2-2-2-2-2-2-2-2-|
A thousand voices singing reasons understanding how it happened


E---------------------------------|
B---------------------------------|
G---------------------------------|
D-0-0-0-0-0-0-0-0-0-0-0-0-0-0-0-0-|
A-0-0-0-0-0-0-0-0-0-0-0-0-0-0-0-0-|
D-0-0-0-0-0-0-0-0-0-0-0-0-0-0-0-0-|
A thousand voices singing reasons understanding how it happened

E---------------------------------|
B---------------------------------|
G---------------------------------|
D-4-4-4-4-4-4-4-4-2-2-2-2-2-2-2-2-|
A-4-4-4-4-4-4-4-4-2-2-2-2-2-2-2-2-|
D-4-4-4-4-4-4-4-4-2-2-2-2-2-2-2-2-|
A thousand voices singing reasons understanding how it happened

E---|
B---|
G---|
D-0-|
A-0-|
D-0-|

Thatís it! Thanks for using my tabs and have fun playing the song! Goodbye and God bless!
Tap to rate this tab
 
# A B C D E F G H I J K L M N O P Q R S T U V W X Y Z