Song name
# A B C D E F G H I J K L M N O P Q R S T U V W X Y Z

Flyleaf - Red Sam Acoustic tab

This is my first tab, I only have the intro and the verses.
If anyone can find out the tabs for the chorus can you please E-mail me at Hitsuhitsugaya@aol.com.
It is not perfect so any other suggestions will be accepted with pleasure. Also if you 
any comments E-mail me.
I think it is in standard tunning but I am not sure.

Intro
E|-------------------------------------------------------------------------|
B|-------------------------------------------------------------------------|
G|-----------11--11--12--12--11/12--12--12---------------------------------|
D|---11--11----------------------------------------------------------------|
A|-------------------------------------------------------------------------|
D|-------------------------------------------------------------------------|

Verse
E|--------------------------------------------------------------------------|
B|--------------------------------------------------------------------------|
G|----------------12------12------12--9--12--------------12--------------12-|
D|--12--11/12/11------11------11-------------11--14--11------11--14--11-----|
A|--------------------------------------------------------------------------|
D|--------------------------------------------------------------------------|

E|----------------------------------------------------------|
B|----------------------------------------------------------|
G|----------------------------------------------------------|
D|-----12--------------12--------------12--9--12--9--11--14-|
A|-11------11--14--11------11--14--11-----------------------|
D|----------------------------------------------------------|
Tap to rate this tab
# A B C D E F G H I J K L M N O P Q R S T U V W X Y Z