Guitaretab - guitar tabs
Song name
# A B C D E F G H I J K L M N O P Q R S T U V W X Y Z

Foo Fighters - Doa tab

Foo fighters by Molekiller
This is my first tab, but i'm pretty sure it's correct-enjoy-

-INTRO-
         Am            D7                 Am            D7
|-------------------------------------------------------------------------|
|-------------------------------------------------------------------------|
|----0---5---5---5-5---5---5---5-5---5----5---5---5-5---5---5---5-5---5---|
|----0---7---7---7-7---0---0---0-0---0----7---7---7-7---0---0---0-0---0---|
|----0---0---0---0-0-------------------0--0---0---0-0-------------------0-|
|-17\0--------------------------------------------------------------------|

-VERSE1-
    Am            D7
|-----------------------------------|
|-----------------------------------|
|---5---5---5-5---5---5---5-5---5---|
|---7---7---7-7---0---0---0-0---0---|
|---0---0---0-0-------------------0-|
|-----------------------------------|
  Am            D7                Am            D7
|-------------------------------------------------|
|-------------------------------------------------|
|-5---5---5-5---5---5---5-5---5---5---5---5-5---5-|
|-7---7---7-7---0---0---0-0---0---7---7---7-7---0-|
|-0---0---0-0-------------------0-0---0---0-0-----|
|-------------------------------------------------|
                  Am            D7                            Fsus2
|------------------------------------------------------------------|
|------------------------------------------------------------------|
|---5---5-5---5---5---5---5-5---5---5---5-5-----0----5---5-5-------|
|---0---0-0---0---7---7---7-7---0---0---0-0-----0----0---0-0----10-|
|---------------0-0---0---0-0-------------------0----------------8-|
|--------------------------------------------/8\--------------17\--|

-PRECHORUS-
    Fsus2                         Dsus4                            Fsus2
|-----------------------------------------------------------------------|
|-----------------------------------------------------------------------|
|------0--------0---------0-----0----------0------0----0-0-0-0-0-0------|
|---10----10-10-----10-10----10---0-4----4----4-4------4-4-4-4-4-4-0-10-|
|----8-----8--8------8--8-----8---0-5----5----5-5------5-5-5-5-5-5-0--8-|
|-----------------------------------------------------------------------|
(repeat, but play the 045 seven times and change the 10-8 to 0-0 and move it up a
string to the 6th and 5th strings)

-CHORUS-
     A5            A6               A5             A6
|-----------------------------------------------------|
|-----------------------------------------------------|
|----2---2---2-2-2-2----2-2---2-2-2-2-----2---2-2-2-2-|
|----2---2---2-2-2-4----4-4---4-4-4-2-----2---2-2-2-4-|
|----0---0---0-0-0-0----0-0---0-0-0-0-----0---0-0-0-0-|
|-----------------------------------------------------|
                 D5              Bm7              D5
|-----------------------------------------------------|
|-----------------3---3-3---3-3-3-3----3-3---3-3-3-3--|
|---2-2---2-2-----2---2-2---2-2-2-2----2-2---2-2-2-2--|
|---4-4---4-4-0-0-0---0-0---0-0-0-0----0-0---0-0-0-0--|
|---0-0---0-0---------------------2----2-2---2-2-2----|
|-----------------------------------------------------|
               Bm7                  A
|---------------------------------------------------------------|
|---3-3---3-3-3-3----3-3---3-3-3----2-----[2]----[1]--[2]-------|
|---2-2---2-2-2-2----2-2---2-2-2-0--2-----[2]----[1]--[2]-------|
|---0-0---0-0-0-0----0-0---0-0-0-0--2-----[2]----[1]--[2]-------|
|---------------2----2-2---2-2-2-0--0-----[0]----[1]--[2]-------|
|----------------------------------------------------------/10\-|
[ Tab from: http://www.guitaretab.com/f/foo-fighters/136848.html ]
-VERSE2-
    Am
|-------------------------------------------------------------------|
|-------------------------------------------------------------------|
|-------------------------------------------------------------------|
|---7-7-7-7-7-7-7-7-7-7-7-7-7-7-7-7-7-7-7-7-7-7-7-7-7-7-7-7-7-7-7-7-|
|---0-0-0-0-0-0-0-0-0-0-0-0-0-0-0-0-0-0-0-0-0-0-0-0-0-0-0-0-0-0-0-0-|
|-------------------------------------------------------------------|
                   Am            D7                 Am            D7
|-------------------------------------------------------------------|
|-------------------------------------------------------------------|
|------------------5-7-7-5-7-5----------0-------0---5-7-7-5-7-5-----|
|---7-7-7-7-7-7----7-7-7-7-7-7-7-7----7-7---7-7-7---7-7-7-7-7-7-7-7-|
|---0-0-0-0-0-0----0-0-0-0-0-0-0-5----5-5---5-5-5---0-0-0-0-0-0-0-5-|
|---------------17\-------------------------------------------------|
              Am           D7          Am                D7             F5
|--------------------------------------------------------------------------|
|--------------------------------------------------------------------------|
|---0------0--5-7-7-5-7-5---9--9\7--7---5---5---5---5-5---5---5---5-5------|
|-7-7--7-7-7--7-7-7-7-7-7-7-0--0----0---7---7---7---7-7---0---0---0-0----3-|
|-5-5--5-5-5--0-0-0-0-0-0-0-------------0---0---0---0-0--------------12\-3-|
|------------------------------------------------------------------------1-|

-PRECHORUS2-
  F5       Dadd4               F5
|---------------------------------|
|---------------------------------|
|------------7--------------------|
|-------------------------------3-|
|--------3-0-5------------------3-|
|-----/5--------------------0---1-|
           Dadd4
|------------------------------------------------|
|------------------------------------------------|
|------------7-----7-7---7-7-7---7-7-7-7-7-7-----|
|------------------------------------------------|
|--------3-0-5-----5-5---5-5-5---5-5-5-5-5-5-5\--|
|-----/5---------------------------------------0-|
(repeat chorus)

-BRIDGE-
  E7            A5  G5  A5  G5               A5    G5 A5  G5    G5 A5 G5
|--------------------------------------------------------------------------|
|--------------------------------------------------------------------------|
|------------------------------------------------------------------------0-|
|---------------7--7-5---7-7-5----------------7---7-5--7-7-5---7-5-7-7\5-0-|
|-5-7-7-5-7-5-------------------5-7-7-5-7-5------------------------------0-|
|-0-0-0-0-0-0-7-5--5-3---5-5-3--0-0-0-0-0-0-7-5---5-3--5-5-3---5-3-5-5\3---|

-PRECHORUS3-
   F5                          D7          
|-----------------------------------------------------------------|
|-----------------------------------------------------------------|
|-----------------------------5---5---5---5---5---5---5---5-------|
|--3---3---3---3---3---3---3--4---4---4---4---4---4---4---4-------|
|--3---3---3---3---3---3---3--5---5---5---5---5---5---5---5-------|
|--1---1---1---1---1---1---1----------------------------------17\-|
(repeat chorus)

-OUTRO-
   
    Am            D7                Am            D7
|-----------------------------------------------------------------|
|-----------------------------------------------------------------|
|---5-7-7-5-7-5---5---5-0---5-5-0---5-7-7-5-7-5---5---5-0---5-5-0-|
|---7-7-7-7-7-7---0---0-0---0-0-0---7-7-7-7-7-7---0---0-0---0-0-0-|
|---0-0-0-0-0-0-0-------------------0-0-0-0-0-0-0-----------------|
|-----------------------------------------------------------------|
    Am            D7                 Am          Dsus4
|--------------------------------------------------3--------------|
|--------------------------------------------------3--------------|
|---5-7-7-5-7-5---5---5-0---5-5-0----5-7-7-5-7-5-0-2--------------|
|---7-7-7-7-7-7---0---0-0---0-0-0----7-7-7-7-7-7-0-0--------------|
|---0-0-0-0-0-0-0--------------------0-0-0-0-0-0-0-0--------------|
|-----------------------------------------------------------------|

That was DOA for you!!! I might've missed out some of prechorus 3, but plz rate me!!!
Related for Doa tab
Advertisement will be closed in 10 seconds