Song name
# A B C D E F G H I J K L M N O P Q R S T U V W X Y Z

Foo Fighters - Wheels tab

Instrument: Guitar
Tuning: eBGDAE


INTRO
Distortion on
E-----------------------------/ 2x
B--3-3------------------------/
G--2-2---2-2--x---------------/
D--0-0---2-2--x---4-4-2-2-----/
A--0-0---2-2--x---4-4-2-2-----/
E ------------x---2-2-0-0-----/


VERSE
Clean
E-----------------------------/ 
B--3-3------------------------/
G--2-2---2-2--x---------------/
D--0-0---2-2--x---4-4-2-2-----/
A--0-0---2-2--x---4-4-2-2-----/
E ------------x---2-2-0-0-----/


CHORUS
Distortion on
E-----------------------------/ 
B--3-3------------------------/
G--2-2---2-2--x---------------/
D--0-0---2-2--x---4-4-2-2-----/
A--0-0---2-2--x---4-4-2-2-----/
E ------------x---2-2-0-0-----/

*The solo can't be heard well in the live verson

Lyrics

I know what you're thinking
We were going down
i could feel us sinking
and then i came around

and everyone i love before
flashed before my eyes
and nothing mattered anymore
i looked into the sky

well we all want something better than
we wish for something new
well we all want something beautiful
wish for something true
being looking for a reason man
something to lose

when the wheels come down
when the wheels touch ground
and you feel like it's all over
there's another round for you
when the wheels come down

My head is spinning
broken hearts will mend
this is our beginning
coming to an end

well we wanted something beautiful
we wish for something new
well you wanted something better than
wish for something true
been looking for a reason man
something to lose

when the wheels come down
when the wheels touch ground
and you feel like it's all over
there's another round for you
when the wheels come down

when the wheels come down
when the wheels touch ground
and you feel like it's all over
there's another round for you
when the wheels come down
(x2)
Tap to rate this tab
# A B C D E F G H I J K L M N O P Q R S T U V W X Y Z