Song name
# A B C D E F G H I J K L M N O P Q R S T U V W X Y Z

Foo Fighters - Long Road To Ruin tab

-------------------------------------------------------------------------------
                     LONG ROAD TO RUIN - Foo Fighters
-------------------------------------------------------------------------------

Intro:
e|-0-0-|-0---------0-0-|
B|-1-1-|-1---------1-1-|
G|-0-0-|-0---------0-0-|
D|-2-2-|-2---------2-2-|
A|-3-3-|-3---------3-3-|
E|-3-3-|-3---------3-3-|

Verse (x2):
e|---------------|---------------|---------------|-----------1-1-|
B|-1-------------|-----------1-1-|-1-------------|-----------1-1-|
G|-0-------------|-----------0-0-|-0-------------|-----------0-0-|
D|-2-------------|-----------2-2-|-2-------------|-----------3-3-|
A|-3-------------|-----------3-3-|-3-------------|-----------3-3-|
E|-3-------------|-----------3-3-|-3-------------|---------------|
 |                                                               |
e|---0--0---0--0-|-----------3---|----------0--0-|---------------|
B|---1--3--/5--3-|--1--0--1------|---1--3--/5--3-|--1--0--1------|
G|---------------|---------------|---------------|-----------0---|
D|---------------|---------------|---------------|---------------|
A|---------------|---------------|---------------|---------------|
E|---------------|---------------|---------------|---------------|

e|-1-------------|-----------1-1-|-1-------------|---------------|
B|-1-------------|-----------1-1-|-1-------------|-----------1-1-|
G|-0-------------|-----------0-0-|-0-------------|-----------0-0-|
D|-3-------------|-----------3-3-|-3-------------|-----------2-2-|
A|-3-------------|-----------3-3-|-3-------------|-----------3-3-|
E|---------------|---------------|---------------|-----------3-3-|
 |                                                               |
e|---0--0---0--0-|-----------3---|---------------|---------------|
B|---1--3--/5--3-|--1--0--1------|---1--3--/5--3-|--1--0--1------|
G|---------------|---------------|---------------|-----------0---|
D|---------------|---------------|---------------|---------------|
A|---------------|---------------|---------------|---------------|
E|---------------|---------------|---------------|---------------|

Extra 2 measures in first verse:
e|---------------|---------------|
B|-1--------1--1-|--1--1---1-1-0-|
G|-0--------0--0-|--0--0---0-0-0-|
D|-2--------2--2-|--2--2---2-2-0-|
A|-3--------3--3-|--3--3---3-3-0-|
E|-3--------3--3-|--3--3---3-3---|
 |                               |
e|---0--0---0--0-|---------------|
B|---1--3--/5--3-|--1--0--1------|
G|---------------|---------------|
D|---------------|---------------|
A|---------------|---------------|
E|---------------|---------------|

Prechorus:
e|-------3---------|-------3---------|-------3---------|-------3---------|
B|-----------1-----|-----------1-----|-----------1-----|-----------1-----|
G|---------------0-|---------------0-|---------------0-|---------------0-|
D|-----------------|-----------------|-----------------|-----------------|
A|-3-----------3---|-2-----------2---|-3-----------3---|-2-----------2---|
E|-----------------|-----------------|-----------------|-----------------|
 |                                                      *                |
e|-----------------|-----------------|-----------------|-----------------|
B|-----------------|-----------------|-----------------|-----------------|
G|-----------------|-----------------|-----------------|-----------------|
D|-----------------|-----------------|-----------------|-0-----------0---|
A|-0-----------0---|-2-----------2---|-3-----------3---|-2-----2-----2---|
E|-------1---------|-------3---------|-------5---------|-------3---------|
*two guitars in one here

e|-------3---------|-------3---------|-------3---------|-2-2-2-2-2-2-2-2-|
B|-----------1-----|-----------1-----|-----------1-----|-3-3-3-3-3-3-3-3-|
G|---------------0-|---------------0-|---------------0-|-2-2-2-2-2-2-2-2-|
D|-----------------|-----------------|-----------------|-0-0-0-0-0-0-0-0-|
A|-3-----------3---|-2-----------2---|-3-----------3---|-----------------|
E|-----------------|-----------------|-----------------|-----------------|
 |                   *                                                   |
e|-----------------|-----------------|-----------------|-----------------|
B|-----------------|-----------------|-----------------|-----------------|
G|-----------------|-----------------|-----------------|-----------------|
D|-----------------|-0-----------0---|-2---------------|-----------------|
A|-0-----------0---|-2-----2-----2---|-3-----------3---|-5-5-5-5-5-5-5-0-|
E|-------1---------|-------3---------|-------5---------|---------------0-|

Chorus:
e|-3---3-3---3-3-3-|-3---3-3---3-3-3-|-3---3-3---3-3-3-|-3---3-3-3-3-3-3-|
B|-1---1-1---1-1-0-|-1---1-1---1-1-0-|-1---1-1---1-1-0-|-1---1-1-1-1-0-0-|
G|-2---2-2---2-2-0-|-0---0-0---0-0-0-|-2---2-2---2-2-0-|-0---0-0-0-0-0-0-|
D|-3---3-3---3-3-0-|-2---2-2---2-2-0-|-3---3-3---3-3-0-|-2---2-2-2-2-0-0-|
A|-----------------|-3---3-3---3-3---|-----------------|-3---3-3-3-3-2-2-|
E|-----------------|-----------------|-----------------|-----------------|
 |                                                                       |
e|-----------------|-----------------|-----------------|-----------------|
B|-----------------|-----------------|-----------------|-----------------|
G|-----------------|-----------------|-----------------|--------0-xx-0-xx|
D|-3---3-3---3-3-x-|-2---2-2---2-2-x-|-3---3-3---3-3-x-|-2---2--2-xx-0-xx|
A|-3---3-3---3-3-x-|-3---3-3---3-3-x-|-3---3-3---3-3-x-|-3---3--3-xx-2-xx|
E|-1---1-1---1-1-x-|-3---3-3---3-3-x-|-1---1-1---1-1-x-|-3---3-----------|

e|-0---0-0---0-0-0-|-2-2-2-0---2-2-x-|-3-3-3-3-3-3-3-3-|-3-3-3-3-3-3-3-3-|----|
B|-1---1-1---1-1-1-|-3-3-3-3---3-3-x-|-1-1-1-1-1-1-1-1-|-1-1-1-1-1-1-1-0-|----|
G|-2---2-2---2-2-2-|-2-2-2-2---2-2-x-|-2-2-2-2-2-2-2-2-|-2-2-2-2-2-2-2-0-|----|
D|-2---2-2---2-2-2-|-0-0-0-0---0-0-x-|-3-3-3-3-3-3-3-3-|-3-3-3-3-3-3-3-0-|----|
A|-0---0-0---0-0-0-|-----------------|-----------------|-----------------|----|
E|-----------------|-----------------|-----------------|-----------------|----|
 |                                                                            |
e|-----------------|-----------------|-----------------|-----------------|----|
B|-----------------|-3---3-3---3-3---|-----------------|-----------------|----|
G|-2---2-2---2-2---|-2---2-2---2-2---|-----------------|-----------------|----|
D|-2---2-2---2-2-0-|-0---0-0---0-0-0-|-3-3-3-3-5-5-5-5-|-7-7-7-7-9-9-9-xx|-10-|
A|-0---0-0---0-0-0-|-0---0-0---0-0-0-|-x-x-x-x-x-x-x-x-|-x-x-x-x-x-x-x-xx|--x-|
E|---------------0-|---------------0-|-1-1-1-1-3-3-3-3-|-5-5-5-5-7-7-7-xx|--8-|

Verse + this guitar:

 |P.m.. . . . . . .x4|   . . . . . . . .x4||
e|-------------------||-------------------||
B|o-----------------o||o-----------------o|| Whole thing
G|--5-5-5-5-5-5-5-5--||-------------------||      x2
D|--5-5-5-5-5-5-5-5--||--3-3-3-3-3-3-3-3--||
A|o-3-3-3-3-3-3-3-3-o||o-3-3-3-3-3-3-3-3-o||
E|-------------------||--1-1-1-1-1-1-1-1--||

Prechorus
Chorus x2(skip last two measures until repeat)

Bridge:
e|-------3---------|-------3---------|-------3---------|-------3---------|
B|-----------1-----|-----------1-----|-----------1-----|-----------1-----|
G|---------------0-|---------------0-|---------------0-|---------------0-|
D|-----------------|-----------------|-----------------|-----------------|
A|-3-----------3---|-2-----------2---|-3-----------3---|-2-----------2---|
E|-----------------|-----------------|-----------------|-----------------|
 |                                                                       | x3
e|-----------------|-----------------|-----------------|-----------------|
B|-----------------|-----------------|-----------------|-----------------|
G|-5-5-5-5-5-5-5-5-|-4-4-4-4-4-4-4-4-|-5-5-5-5-5-5-5-5-|-4-4-4-4-4-4-4-4-|
D|-x-x-x-x-x-x-x-x-|-x-x-x-x-x-x-x-x-|-x-x-x-x-x-x-x-x-|-x-x-x-x-x-x-x-x-|
A|-3-3-3-3-3-3-3-3-|-2-2-2-2-2-2-2-2-|-3-3-3-3-3-3-3-3-|-2-2-2-2-2-2-2-2-|
E|-----------------|-----------------|-----------------|-----------------|

Prechorus

Solo:
e|-----3-----------|-----------------|-----3-----------|-----------------|
B|--------------5b-|-5-3h5p3\1-3\1---|-------------5b--|----5-3h5-3\1----|
G|-0h2--------0----|--------------2p0|-0h2-------0-----|--------------2p0|
D|-----------------|-----------------|-----------------|-----------------|
A|-----------------|-----------------|-----------------|-----------------|
E|-----------------|-----------------|-----------------|-----------------|
                                                                        
e|---------------------------------|------------------------|
B|-1h3p1---1-----------------------|------------------------|
G|-------2---2p0---0---------------|------------------------|
D|---------------2---2p0---0h2p0---|-0h2p0---0h20---0-------|
A|-----------------------3-------3-|-------3------3---3-0-3-|
E|---------------------------------|------------------------|

e|-----------------|-----------------|-----------------|-----------------|
B|-----------------|-------5---------|--(hold)---------|------------0-0--|
G|-----------------|-------5-----5-7b|-7-7-7-7-7r-5h7--|-5h7p5------0-0--|
D|-------------5---|-5h7-0-----7-----|-----------------|------------0-0--|
A|---3-5-3-5/7---7-|-----0-----------|-----------------|-----------------|
E|-----------------|-----------------|-----------------|-----------------|
                                                  
                                                 (chorus begins)
e|--------------------------|-------------------|-----------------|---|
B|-5------------------------|---5---------------|-----------------|---|
G|-5---------5--------5-----|---5---------------|-----------------|---|
D|----7p5------7p5------7p5-|-------------------|-----------------|---|
A|--------7--------7--------|-7---7p5s3-5-3-----|-----------------|---|
E|--------------------------|---------------5-3-|-1-----------(1)/|-8-|

Chorus

Outro:
e|-0---0-0---0-0-0-|-2-2-2-0---2-2-x-|-3-3-3-3-3-3-3-3-|-3-3-3-3-3-3-3-xx|
B|-1---1-1---1-1-1-|-3-3-3-3---3-3-x-|-1-1-1-1-1-1-1-1-|-1-1-1-1-1-1-1-xx|
G|-2---2-2---2-2-2-|-2-2-2-2---2-2-x-|-2-2-2-2-2-2-2-2-|-2-2-2-2-2-2-2-xx|
D|-2---2-2---2-2-2-|-0-0-0-0---0-0-x-|-3-3-3-3-3-3-3-3-|-3-3-3-3-3-3-3-xx|
A|-0---0-0---0-0-0-|-----------------|-----------------|-----------------|
E|-----------------|-----------------|-----------------|-----------------|
 |                                                                       |
e|-----------------|-----------------|-----------------|-----------------|
B|-----------------|-3---3-3---3-3---|-----------------|-----------------|
G|-2---2-2---2-2---|-2---2-2---2-2---|-----------------|-----------------|
D|-2---2-2---2-2-0-|-0---0-0---0-0-0-|-3-3-3-3-5-5-5-5-|-7-7-7-7-9-9-9-xx|
A|-0---0-0---0-0-0-|-0---0-0---0-0-0-|-x-x-x-x-x-x-x-x-|-x-x-x-x-x-x-x-xx|
E|---------------0-|---------------0-|-1-1-1-1-3-3-3-3-|-5-5-5-5-7-7-7-xx|

e|-1-1-1-1-1-1-1-1-|-1-1-1-1--1--1--1----|-------------|-----------------|
B|-1-1-1-1-1-1-1-1-|-1-1-1-1--1--1--1-1-1|-1-----------|-----------------|
G|-2-2-2-2-2-2-2-2-|-2-2-2-2--2--2--2-0-0|-0-----------|-----------------|
D|-3-3-3-3-3-3-3-3-|-3-3-3-3--3--3--3-2-2|-2-----------|-----------------|
A|-3-3-3-3-3-3-3-3-|-3-3-3-3--3--3--3-3-3|-3-----------|-----------------|
E|-1-1-1-1-1-1-1-1-|-1-1-1-1--1--1--1-3-3|-3-----------|-----------------|
 |                                                                       |
e|-----------------|---------------------|-------------|-----------------|
B|-----------------|---------------------|-------------|-----------------|
G|-5-5-5-5-7-7-7-7-|-9-9-9-9-10-10-10-10-|-5-----------|-----------------|
D|-x-x-x-x-x-x-x-x-|-x-x-x-x--x--x--x--x-|-x-----------|-----------------|
A|-3-3-3-3-5-5-5-5-|-7-7-7-7--8--8--8--8-|-3-----------|-----------------|
E|-----------------|---------------------|-------------|-----------------|

| /  slide up
| \  slide down
| h  hammer-on
| p  pull-off
| ~  vibrato
| +  harmonic
| x  Mute note
===============================================================================
Tap to rate this tab
 
# A B C D E F G H I J K L M N O P Q R S T U V W X Y Z