Song name
# A B C D E F G H I J K L M N O P Q R S T U V W X Y Z

Foo Fighters - Still tab

     
                         Foo Fighters - Still
   
tabbed by GUNDOLF

Intro

E||----------------|
B||----------------|
G||----0-------0---| x4
D||----------------|
A||--7-------7-----|
E||8-----8-6-----6-|

Verse

E||------------------|    |------------------|    |------------------|
B||------------------|    |------------------|    |------------------|
G||-----0--------0---| x4 |-----0--------0---| x2 |-----0--------0---| x2
D||------------------|    |------------------|    |------------------|
A||---7--------7-----|    |---6--------8-----|    |---7--------7-----|
E||-8-----8--6-----6-|    |-4-----4--6-----6-|    |-8-----8--6-----6-|
   
  If you'd like....       Follow me....           I will lead....

Pre-Chorus
 
E||------------------|    |------------------|    |------------------|
B||------------------|    |------------------|    |------------------|
G||-----0--------0---| x2 |-----0--------0---| x2 |-----0--------0---| x2
D||------------------|    |------------------|    |------------------|
A||---7--------7-----|    |---6--------8-----|    |---3--------3-----|
E||-8-----8--6-----6-|    |-4-----4--6-----6-|    |-1-----1--1-----1-|

Chorus

E||------------------|-----------------|-----------------|----------------|
B||------------------|-----------------|-----------------|----------------|
G||-----0--------0---|-----0-------0---|-----0-------0---|-----0-------0--|x2
D||------------------|-----------------|-----------------|----------------|
A||---6--------6-----|---8-------8-----|---3-------3-----|---3-------3----|
E||-4-----4--4-----4-|-6-----6-6-----6-|-1-----1-1-----1-|-1-----1-1-----1|

  Promise not to say....

E||------------------|-----------------|-----------------|-----------------|
B||------------------|-----------------|-----------------|-----------------|
G||-----0--------0---|-----0-------0---|-----0-------0---|-----0-------0---|
D||------------------|-----------------|-----------------|-----------------|
A||---6--------6-----|---8-------8-----|---3-------3-----|---3-------3-----|
E||-4-----4--4-----4-|-6-----6-6-----6-|-5-----5-5-----5-|-5-----5-5-----5-|

  Nevermind what's done....

Order:
Intro
Verse 
Verse
Pre-Chorus
Chorus   
Intro
Verse 
Verse
Pre-Chorus
Chorus   
Chorus
Tap to rate this tab
 
# A B C D E F G H I J K L M N O P Q R S T U V W X Y Z