Song name
# A B C D E F G H I J K L M N O P Q R S T U V W X Y Z

Foo Fighters - All My Life tab

Okay, I figured this all out. Now in the video I think he plays it starting on G, but in correct tuning it's on G# so his guitar is tuned down a half step, so this is how it is in normal tuning.

Foo Fighters
All My Life
One By One
Written by Grohl
Tabbed by Patrick Koch

Intro/Verse for rhythym:

E-----------------------------------|
B-----------------------------------|
G-----------------------------------|
D-6-6-6--6-6-6--6-6-6--6-6-6--6-6-6-|
A-6-6-6--6-6-6--6-6-6--6-6-6--6-6-6-|
E-4-4-4--4-4-4--4-4-4--4-4-4--4-4-4-|


Lead verse is played when it breaks out.

Lead Guitar Verse:

E---------------------------|
B---------------------------|
G-4-4-4-4-4-6--4-4-4-4--7-7-|
D-6-6-6-6-6-8--6-6-6-6--9-9-|
A---------------------------|
E---------------------------|


Chorus:
(Listen for strum pattern)

E------                           E------
B------                           B------
G-4----                           G------
D-6----                           D-6----
A------                           A-6----
E------                           E-4----

"Hey what a total waste!"         "I love it but I hate the taste"

E---------------------------------------------------|
B---------------------------------------------------|
G-6-6-6-6-6-6-6-6-------------------4-4-4-4-4-4-4-4-|
D-6-6-6-6-6-6-6-6--4-4-4-4-4-4-4-4--4-4-4-4-4-4-4-4-|
A-4-4-4-4-4-4-4-4--4-4-4-4-4-4-4-4--2-2-2-2-2-2-2-2-|
E------------------2-2-2-2-2-2-2-2------------------|
   Way             Keepin me        Down               <----(I think those are the words)


Bridge:
It's the same as the Verse rythym part
"DONE DONE ON TO THE NEXT ONE!"

There you have it, this is the best Foo album yet, I highly reccomend it.








Tap to rate this tab
# A B C D E F G H I J K L M N O P Q R S T U V W X Y Z