Song name
# A B C D E F G H I J K L M N O P Q R S T U V W X Y Z

Foo Fighters - Times Like These tab

Song:Times Like These
Artist:Foo Fighters
Album:One by One

Tabbed by ben3296(bptrules@hotmail.com)

Standard Tuning (eBGDAE)
Q=144
Distortion except outro chorus

1st guitar plays tab
2nd accompanies with chords
It is not essential to play the chords in a certain position, so long as it is the 
right chord in some variation :)



Intro
-----
   4/4
e-|5-5-5-5-5---5-5-|5-5-5---5-5-5---|
B-|0-0-0-0-0---0-0-|0-0-0---0-0-0---|
G-|5-5-5-5-5---5-5-|5-5-5---5-5-5---| play 4
D-|0-0-0-0-0---0-0-|0-0-0---0-0-0---| times
A-|0-5-5-0-5---0-5-|5-0-5---0-5-5---|
E-|----------------|----------------|



Riff
----
   7/4
e-|--------------------------------------|
B-|--------------------------------------|
G-|----------12-11-----------12-11-------| play 8
D-|0-12-10-0-------0-12-10-0-------------| times
A-|--------------------------------12-10-|
E-|--------------------------------------|

Chords with riff
  |D5------------------------------------|
  |Csu2----------------------------D5----|
  |Bmin----------------------------A5----|
  |D5------------------------------------|
  |Csu2----------------------------D5----|
  |Bmin----------------------------A5----|
  |D5------------------------------------|
  |Csu2----------------------------D5----|



4/4
e-|---------------------|----------------------|
B-|---------------------|----------------------|
G-|----------12-11------|-----12-11------------|
D-|0-12-10-0-------0-12-|10-0------------------|
A-|---------------------|-----------12-10-12\0-|
E-|---------------------|----------------------|
   Bmin                  Bmin



   4/4
e-|5-5-5-5-5---5-5-|5-5-5---5-5-5---|
B-|0-0-0-0-0---0-0-|0-0-0---0-0-0---|
G-|5-5-5-5-5---5-5-|5-5-5---5-5-5---|
D-|0-0-0-0-0---0-0-|0-0-0---0-0-0---|
A-|0-5-5-0-5---0-5-|5-0-5---0-5-5---|
E-|----------------|----------------|



Verse
-----
   4/4
   D5               D5               A5               A5
e-|----2-0-------2-|------0---------|------3-------0-|------3---------|
B-|----------3-----|--3-------3-----|----------1-----|--1-------1-----|
G-|--2---------2---|----2-------2---|----2-------2---|----2-----------|
D-|0---------------|--------------0-|--2-------------|----------------|
A-|----------------|----------------|0---------------|------------2---|
E-|----------------|----------------|----------------|----------------|

   C5               E5
e-|------3---------|------0---------|
B-|----------1-----|------3---3-3-0-|
G-|----0-------0---|----0-----0-0-0-|
D-|--2-----------2-|----2-----------|
A-|3---------------|2---------------|
E-|----------------|----------------|


e-|5-5-5-5-5---5-5-|5-5-5---5-5-5---|
B-|0-0-0-0-0---0-0-|0-0-0---0-0-0---|
G-|5-5-5-5-5---5-5-|5-5-5---5-5-5---|
D-|0-0-0-0-0---0-0-|0-0-0---0-0-0---|
A-|0-5-5-0-5---0-5-|5-0-5---0-5-5---|
E-|----------------|----------------|


   D5               D5               A5               A5
e-|----2-0-------2-|------0---------|------3-------0-|------3---------|
B-|----------3-----|--3-------3-----|----------1-----|--1-------1-----|
G-|--2---------2---|----2-------2---|----2-------2---|----2-----------|
D-|0---------------|--------------0-|--2-------------|----------------|
A-|----------------|----------------|0---------------|------------2---|
E-|----------------|----------------|----------------|----------------|

   C5               E5
e-|------3---------|------0---------|
B-|----------1-----|------3---3-3-0-|
G-|----0-------0---|----0-----0-0-0-|
D-|--2-----------2-|----2-----------|
A-|3---------------|2---------------|
E-|----------------|----------------|


e-|5-5-5-5-5---5-5-|5-5-5---5-5-5---|
B-|0-0-0-0-0---0-0-|0-0-0---0-0-0---|
G-|5-5-5-5-5---5-5-|5-5-5---5-5-5---| play 2
D-|0-0-0-0-0---0-0-|0-0-0---0-0-0---| times
A-|0-5-5-0-5---0-5-|5-0-5---0-5-5---|
E-|----------------|----------------|



Chorus
------
   4/4
   C5               E5               D5
e-|------3---3-----|------0---0-----|------5---5-----|
B-|------1---1-1---|------3---3-3---|------3---3-3---|
G-|0---0-0---0-0-0-|------0---0-0-0-|0---0-0---0-0-0-| play 3
D-|2---2---------2-|2---2---------4-|4---4---------0-| times
A-|3---3-----------|2---2-----------|5---5-----------|
E-|----------------|0---0-----------|----------------|

   C5               E5
e-|------3---3-----|------0---0-----|
B-|------1---1-1---|------3---3-3---|
G-|0---0-0---0-0-0-|------0---0-0-0-|
D-|2---2---------2-|2---2---------4-|
A-|3---3-----------|2---2-----------|
E-|----------------|0---0-----------|


e-|5-5-5-5-5---5-5-|5-5-5---5-5-5---|
B-|0-0-0-0-0---0-0-|0-0-0---0-0-0---|
G-|5-5-5-5-5---5-5-|5-5-5---5-5-5---| play 2
D-|0-0-0-0-0---0-0-|0-0-0---0-0-0---| times
A-|0-5-5-0-5---0-5-|5-0-5---0-5-5---|
E-|----------------|----------------|



Verse
-----
   4/4
   D5               D5               A5               A5
e-|----2-0-------2-|------0---------|------3-------0-|------3---------|
B-|----------3-----|--3-------3-----|----------1-----|--1-------1-----|
G-|--2---------2---|----2-------2---|----2-------2---|----2-----------|
D-|0---------------|--------------0-|--2-------------|----------------|
A-|----------------|----------------|0---------------|------------2---|
E-|----------------|----------------|----------------|----------------|

   C5               E5
e-|------3---------|------0---------|
B-|----------1-----|------3---3-3-0-|
G-|----0-------0---|----0-----0-0-0-|
D-|--2-----------2-|----2-----------|
A-|3---------------|2---------------|
E-|----------------|----------------|


e-|5-5-5-5-5---5-5-|5-5-5---5-5-5---|
B-|0-0-0-0-0---0-0-|0-0-0---0-0-0---|
G-|5-5-5-5-5---5-5-|5-5-5---5-5-5---|
D-|0-0-0-0-0---0-0-|0-0-0---0-0-0---|
A-|0-5-5-0-5---0-5-|5-0-5---0-5-5---|
E-|----------------|----------------|


   D5               D5               A5               A5
e-|----2-0-------2-|------0---------|------3-------0-|------3---------|
B-|----------3-----|--3-------3-----|----------1-----|--1-------1-----|
G-|--2---------2---|----2-------2---|----2-------2---|----2-----------|
D-|0---------------|--------------0-|--2-------------|----------------|
A-|----------------|----------------|0---------------|------------2---|
E-|----------------|----------------|----------------|----------------|

   C5               E5
e-|------3---------|------0---------|
B-|----------1-----|------3---3-3-0-|
G-|----0-------0---|----0-----0-0-0-|
D-|--2-----------2-|----2-----------|
A-|3---------------|2---------------|
E-|----------------|----------------|


e-|5-5-5-5-5---5-5-|5-5-5---5-5-5---|
B-|0-0-0-0-0---0-0-|0-0-0---0-0-0---|
G-|5-5-5-5-5---5-5-|5-5-5---5-5-5---| play 2
D-|0-0-0-0-0---0-0-|0-0-0---0-0-0---| times
A-|0-5-5-0-5---0-5-|5-0-5---0-5-5---|
E-|----------------|----------------|



Chorus
------
   4/4
   C5               E5               D5
e-|------3---3-----|------0---0-----|------5---5-----|
B-|------1---1-1---|------3---3-3---|------3---3-3---|
G-|0---0-0---0-0-0-|------0---0-0-0-|0---0-0---0-0-0-| play 3
D-|2---2---------2-|2---2---------4-|4---4---------0-| times
A-|3---3-----------|2---2-----------|5---5-----------|
E-|----------------|0---0-----------|----------------|

   C5               E5
e-|------3---3-----|------0---0-----|
B-|------1---1-1---|------3---3-3---|
G-|0---0-0---0-0-0-|------0---0-0-0-|
D-|2---2---------2-|2---2---------4-|
A-|3---3-----------|2---2-----------|
E-|----------------|0---0-----------|



Riff
----
   7/4
e-|--------------------------------------|
B-|--------------------------------------|
G-|----------12-11-----------12-11-------| play 11
D-|0-12-10-0-------0-12-10-0-------------| times
A-|--------------------------------12-10-|
E-|--------------------------------------|

Chords with riff
  |D5------------------------------------|
  |Csu2----------------------------D5----|
  |Bmin----------------------------A5----|
  |D5------------------------------------|
  |Csu2----------------------------D5----|
  |Bmin----------------------------A5----|
  |D5------------------------------------|
  |Csu2----------------------------D5----|
  |Bmin----------------------------A5----|
  |D5------------------------------------|
  |Csu2----------------------------D5----|



4/4
e-|---------------------|----------------------|
B-|---------------------|----------------------|
G-|----------12-11------|-----12-11------------|
D-|0-12-10-0-------0-12-|10-0------------------|
A-|---------------------|-----------12-10-12\0-|
E-|---------------------|----------------------|
   Bmin                  Bmin



   D7                    D7
e-|---------------------|----------------------|
B-|---------------------|----------------------|
G-|----------12-11------|-----12-11------------| play 4
D-|0-12-10-0-------0-12-|10-0------------------| times
A-|---------------------|-----------12-10-12\0-|
E-|---------------------|----------------------|




Chorus
------
   4/4
   C5               E5               D5
e-|------3---3-----|------0---0-----|------5---5-----|
B-|------1---1-1---|------3---3-3---|------3---3-3---|
G-|0---0-0---0-0-0-|------0---0-0-0-|0---0-0---0-0-0-| play 8
D-|2---2---------2-|2---2---------4-|4---4---------0-| times
A-|3---3-----------|2---2-----------|5---5-----------|
E-|----------------|0---0-----------|----------------|


Outro-Chorus  **CLEAN GUITAR**
------------
   4/4
e-|------3---3-----|------0---0-----|------5---5-----|
B-|------1---1-1---|------3---3-3---|------3---3-3---|
G-|0---0-0---0-0-0-|------0---0-0-0-|0---0-0---0-0-0-| play 4
D-|2---2---------2-|2---2---------4-|4---4---------0-| times
A-|3---3-----------|2---2-----------|5---5-----------|
E-|----------------|0---0-----------|----------------|

then end with
e-|3----------------|
B-|1----------------|
G-|0----------------|
D-|2----------------|
A-|3----------------|
E-|-----------------|


Hope this helps
Sorry if any of it is hard to understand
Please comment, rate and correct any mistakes
Thanks :)
Tap to rate this tab
 
# A B C D E F G H I J K L M N O P Q R S T U V W X Y Z