Foo Fighters - Bridge Burning tab

e|------------------|
B|------------------|
G|--harmonic--------|
D|------------------|
A|---------4--------|
E|------------------|


e|------------------------------|
B|------------------------------|
G|------------------------------|
D|------------------------------|
A|---5-7-5-7-5-7-5-7-5-7--5-7---|
E|-----------------------0----0-|

e|------------------------------------|
B|------------------------------------|
G|---9-9---9-8-8---8-7-7---7-6-6------|
D|---9-9---9-8-8---8-7-7---7-6-6------|
A|---7-7---7-6-6---6-5-5---5-4-4------|
E|-------------------------------12/0-|


e|--------------------------|
B|--------------------------|
G|---5555------2222-7777--9-|
D|---5555-5555-2222-7777--9-|
A|---3333-5555-0000-5555--7-|
E|--------3333------------0-|
Tap to rate this tab
 
# A B C D E F G H I J K L M N O P Q R S T U V W X Y Z