Guitaretab - guitar tabs
Song name
# A B C D E F G H I J K L M N O P Q R S T U V W X Y Z

Foo Fighters - Arlandria tab

Foo Fighters - Alandria

Tabbed by Howard2k3k


Tuning: Standard E



Intro:


-----------------------------------------------------------------------|
-----------------------------------------------------------------------|
-----------------------------------------------------------------------|
------6-4-6-----------6-4-------------6-4-6-----------6-4-6------------|
--4-7-------4/----4-7-----7-4-----4-7-------/4----4-7-------7b---------|
-----------------------------------------------------------------------|

The last note is supposed to bend slowly, listen to the track and you'll figure it out. 


Verse 1:

Main riff repeated 

(0:11)

-------------------------------|
-------------------------------|
--444--44444--444--33333-------|
--666--22222--222--44444-------|
--444--00000--222--44444-------|
--------------000--------------|
  ...  .....  ...  .....        Palm muted




Guitar 1:

Hard to hear, but it's something like this.

(0:40)

|------4--------0---------0---------0-----------|
|----4--4-----0---0-----4---0-----4---4---------|
|--6--------2---------4---------1---------------|
|-----------------------------------------------|  
|-----------------------------------------------|
|-----------------------------------------------|



Guitar 2:

|----------------------|
|-------------9--------|
|-------12b------------|  
|----------------------|  Repeat until chours.
|----------------------|
|----------------------|





Chours:

(0:48)

|-------------------------------------------------------------------------------------------------|
|-------------------------------------------------------------------------------------------------|
|--66666666----------------------4444------------66666666----------------------4444---555---------|
|--66666666--77777777--22222222--4444---444------66666666--77777777--22222222--4444---555---------|
|--44444444--77777777--22222222--2222---444------44444444--77777777--22222222--2222---333---------|
|------------55555555--00000000---------222----------------55555555--00000000---------------------|

(1:05)

|-----------------------------------------------------------|
|-----------------------------------------------------------|
|--66-66-6--------------------------------------------------|
|--66-66-6--44-44-44/6/77777--9999--------------------------|  x 2
|--44-44-4--44-44-44/6/77777--9999-10101010-----------------|
|-----------22-22-22/4/55555--7777-8-8-8-8------------------|

(1:21)

|---------------------------|
|--00000000-----------------|
|--11111111--333------------|  
|------------444------------|   x 2
|---------------------------|
|---------------------------|



Verse 2:

Guitar 1 (clean):

(1:29)

|--------------0---------------0----------------------|
|------0---0-----0-----0-----0---0--------------------|
|----1-------1-------1-----3--------------------------|
|-----------------------------------------------------|   x 4
|--4-----0--------------------------------------------|
|------------------0-----2----------------------------|


Guitar 2 (distorted):

(1:45)

|-----------------------------------------------|
|-----------------------------------------------|
|----4-----4---4-----4----3---3-----------------|
|-----------------------------------------------|   x 5
|--4---4-0---0---0------------------------------|
|------------------0--0-2---2-------------------|



(1:58)

|--------------9-------|
|---------12b----------|
|----------------------|  
|----------------------|  
|----------------------|
|----------------------|

Repeat until chours starts.


Chours 2:

(2:06)
[ Tab from: http://www.guitaretab.com/f/foo-fighters/270779.html ]
|-------------------------------------------------------------------------------------------------|
|-------------------------------------------------------------------------------------------------|
|--66666666----------------------4444------------66666666----------------------4444---555---------|
|--66666666--77777777--22222222--4444---444------66666666--77777777--22222222--4444---555---------|
|--44444444--77777777--22222222--2222---444------44444444--77777777--22222222--2222---333---------|
|------------55555555--00000000---------222----------------55555555--00000000---------------------|


(2:22)

|-----------------------------------------------------------|
|-----------------------------------------------------------|
|--66-66-6--------------------------------------------------|
|--66-66-6--44-44-44/6/77-77-7--9999-10101010---------------|  x 2
|--44-44-4--44-44-44/6/77-77-7--9999-10101010---------------|
|-----------22-22-22/4/55-55-7--7777-8-8-8-8----------------|






Bridge:

(2:39)

|------------------------------------------------------------------------------------------------|
|------------------------------------------------------------------------------------------------|
|--66-66-66----------------------4444----------------66-66-66----------------------4444--5555----|
|--66-66-66--77-77-77--22-22-22--4444--444-----------66-66-66--77-77-77--22-22-22--4444--5555----|
|--44-44-44--77-77-77--22-22-22--2222--444-----------44-44-44--77-77-77--22-22-22--2222--3333----|
|------------55-55-55--00-00-00--------222---------------------55-55-55--00-00-00----------------|




"Outro":

(2:55)

|-------------------------------|
|-------------------------------|
|--444--44444--444--33333-------|
|--666--22222--222--44444-------|  x 10
|--444--00000--222--44444-------|
|--------------000--------------|
  ...  .....  ...  .....        Palm muted



(3:20)

|----------------------|
|-------------9--------|
|-------12b------------|  
|----------------------|  Comes in the 7th time.
|----------------------|
|----------------------|


(3:29)

|--------------9-------|
|---------12b----------|
|----------------------|  
|----------------------|  Comes in the 9th time.
|----------------------|
|----------------------|

(3:37)


|-------------------------------------------------------------------------------------------------|
|-------------------------------------------------------------------------------------------------|
|--66666666----------------------4444------------66666666----------------------4444---555---------|
|--66666666--77777777--22222222--4444---444------66666666--77777777--22222222--4444---555---------|
|--44444444--77777777--22222222--2222---444------44444444--77777777--22222222--2222---333---------|
|------------55555555--00000000---------222----------------55555555--00000000---------------------|


(3:53)

|-----------------------------------------------------------|
|-----------------------------------------------------------|
|--66-66-6--------------------------------------------------|
|--66-66-6--44-44-44/6/77-77-7--9999-10101010---------------|
|--44-44-4--44-44-44/6/77-77-7--9999-10101010---------------|
|-----------22-22-22/4/55-55-7--7777-8-8-8-8----------------|



(4:10)

|------------------------------------------------------------|
|------------------------------------------------------------|
|------------------------------------------------------------|
|------6-4-6------6-4-----------6-4--------------------------|  x 2
|--4-7--------4-7------7-4--4-7-----7-4---9999-10101010------|
|-----------------------------------------7777-8-8-8-8-------|



That's pretty much it.

Have fun :)
Related for Arlandria tab
Arlandria chords by Foo Fighters