Song name
# A B C D E F G H I J K L M N O P Q R S T U V W X Y Z

Foo Fighters - Stranger Things Have Happened chords

Highlighted       Show chord diagrams
-------------------------------------------------------------------------------
                    STRANGER THINGS HAVE HAPPENED - Foo Fighters
-------------------------------------------------------------------------------
Tabbed by: THWIT

The intro and verse are just melodic, chords are only at chorus.


Intro/Verse
e|---------------------------------------------|
B|---------------------------------------------|
G|-------2----2--2-----------------------------|
D|-------0----0--2-----------0----0--0---------|
A|--2-2-----2-------0--------0----0--2---------|
E|--------------------2---2-----2-------1--0---|


e|--------------------------------------------|
B|--------------------------------------------|
G|---2---2--2-----2---2---2--2----------------| 
D|---0---0--2-----0---0---0--2------0---------|
A|------------------------------0h2-----------|
E|0----0--------0---0---0---------------------|



Verse 1
 Play the verse pattern
God damn this dusty room,this hazy afternoon


I'm breathing in this silence like never before


This feeling that I get, this one last cigarette


As I lay awake and wait for you to come through the door.


Oh maybe maybe maybe I can share it with you


I behave I behave I behave so I can share it with you.

Chorus

        bm              f#m
You are not alone dear loneliness

       G              E
You forgot that I remembered this

       D                f#m                        F   E  Esus4 E
Oh stranger stranger stranger things have happened I know

        bm              f#m
You are not alone dear loneliness

       G              E
You forgot that I remembered this

       D                f#m                        F   E  Esus4 E
Oh stranger stranger stranger things have happened I know


Bridge (instrumental same pattern as in the verses)

Verse 2
Play the verse pattern
We'll dream about somewhere our smoke will fill the air


As I lay awake and wait for you to walk out that door


I can change I can change I can change but who you want me to be


I'm the same I'm the same I'm the same what do you want me to be

Chorus (till fade) 
Tap to rate this tab
# A B C D E F G H I J K L M N O P Q R S T U V W X Y Z