Song name
# A B C D E F G H I J K L M N O P Q R S T U V W X Y Z

Foo Fighters - Stranger Things Have Happened tab

Listen to the song to learn the order of which part is played. I've tabbed this all by ear,
and it's all my own work, because I couldn't find any correct versions of the solo.
The only part I am unsure about is the second bar of the second line of the solo.
In the last chorus, one line is repeated, and then after the main riff ends after the first line.
This is a great acoustic song by the Foo fighters on 2 guitars, although one guitar just plays
the main riff all the time.
Feel free to comment. Enjoy.
- Gaz_m2k5
Updated 03/08/2008: Last part of solo updated. Corrected the pull offs (10p7 7p5)

KEY
h - hammer on
p - pull off
/ - slide
^ - bend
x - muted string

Main riff

e|---------------------------------------------|
B|---------------------------------------------|
G|-------2----2--2-----------------------------|
D|-------0----0--2-----------0----0--0---------|
A|--2-2-----2-------0--------0----0--2---------|
E|--------------------2---2-----2-------1--0---|


e|--------------------------------------------|
B|--------------------------------------------|
G|---2---2--2-----2---2---2--2----------------| repeat
D|---0---0--2-----0---0---0--2------0---------|
A|------------------------------0h2-----------|
E|0----0--------0---0---0---------------------|


Before the chorus the second line (above) is played;

e|--------------------------------------|
B|--------------------------------------|
G|---2---2--2-----2---2--2-----2--------|
D|---0---0--2-----0---0--2-----2--------|
A|--------------------------------------|
E|0----0--------0---0--------0----------|



Chorus                Listen to song for strumming pattern

e|--0----------------------0--------------------0-------------0-----------|
B|--0----------------------0--------------------0-------------0-----------|
G|--4----------------------2--------------------4-------------1-----------|
D|--4----------------------4--------------------5-------------2-----------|
A|--2----------------------4--------------------5-------------2-----------|
E|-------------------------2--------------------3-------------0-----------|

  You were not alone, Dear loneliness,  You forgot, but I remember this


e|----2-------------------0--------------------------------0----------0-----0----------|
B|----3-------------------0--------------------------------0----------0-----0----------|
G|----2-------------------6-----------------------------5--1----------2-----1----------|
D|----0-------------------7-----------------------------6--2----------2-----2----------|
A|------------------------4-----------------------------3--2----------2-----2----------|
E|---------------------------------------------------------0----------0-----0----------|

  Oh Stranger, stranger,  stranger things have happened I know,       oh,  oh


First Bridge

e|---------5-----------5--5/7-----------5----------4----------0----|
B|------3-----------3----------------3-------3----------3----------|
G|---4-----------4----------------4-------------4----------4-------|
D|-----------------------------------------------------------------|
A|-----------------------------------------------------------------|
E|-----------------------------------------------------------------|


e|---------5-----------5--5/7-----------5----------4----------4^----5-7--|
B|------3-----------3----------------3-------3----------3--------7-------|
G|---4-----------4----------------4-------------4----------4-------------|
D|-----------------------------------------------------------------------|
A|-----------------------------------------------------------------------|
E|-----------------------------------------------------------------------|


Pre chorus riff

e|---------5-----------5--5/7-----------5----------4----------0----|
B|------3-----------3----------------3-------3----------3----------|
G|---4-----------4----------------4-------------4----------4-------|
D|-----------------------------------------------------------------|
A|-----------------------------------------------------------------|
E|-----------------------------------------------------------------|


e|---------5-----------5--5/7-----------5----------4----------4^-2-------|
B|------3-----------3----------------3-------3----------3-----------5-3--|
G|---4-----------4----------------4-------------4----------4-------------|
D|-----------------------------------------------------------------------|
A|-----------------------------------------------------------------------|
E|-----------------------------------------------------------------------|




Second Bridge/solo

e|-----------------------------------9--9---12--12--9---|
B|-12--12--12--12--12--12-----8/10--10-10---10--10--10--|
G|-11--11--11--14--14--11--9--9/11--11-11---11--11--11--|
D|------------------------------------------------------|
A|------------------------------------------------------|
E|------------------------------------------------------|

e|--7---7--7--7--7-------7---7--7------|
B|--9---9--9--10-10------7---9--9------|
G|--7---7--7--7--7---7---7---7--7------|
D|-------------------------------------| 2 beats rest
A|-------------------------------------|
E|-------------------------------------|



e|-10--10--10--12--12--10-----12---12--12--14--14--12---|
B|-10--10--10--10--10--10-----12---12--12--12--12--12---|
G|-11--11--11--11--11--11-----11---11--11--11--11--11---|
D|------------------------------------------------------|
A|------------------------------------------------------|
E|------------------------------------------------------|

e|---12---12--12--14--14--12---10---12--10--12------|
B|---12---12--12--12--12--12---12---12--12--12------|
G|---13---13--13--13--13--13---13---13--13--13------| 2 beats rest
D|--------------------------------------------------|
A|--------------------------------------------------|
E|--------------------------------------------------|



e|-----------------------------------------7----------------------------------------------|
B|-7/10--10--10--10--10-----10-------------7----------------------------------------------|
G|-8/11--11--11--11--11--9--7---9~---7--9----9-7---------7--------------------------------| 
D|-----------------------------------------------9p7-----7--9-9--7-9-7--------------------|
A|----------------------------------------------------9-----------------9--7-------7------|
E|-----------------------------------------------------------------------------10---------|
2 beats rest


e|-10p7-------7p5--------------------------------------------------------------------------|
B|------10p7-------7p5----7p5--------------------------------------------------------------|
G|-----------------------------7--4---9p7--------------------------------------------------|
D|-----------------------------------------9p7--9-9-7----7---------------------------------|
A|----------------------------------------------------9----9-7-----7------7^---------------|
E|-------------------------------------------------------------10-----10------10--7--------|

e|--------------------------------------x-x-x----------------------------------------------|
B|----------------------------------x-x-x-x-x----------------------------------------------|
G|--------------------------------x-x-x-x-x-x----------------------------------------------|
D|-------------------------7/9--9-9-9-9-9-9-9----------------------------------------------|
A|----------9--11--11^--9---------x-x-x-x-x-x----------------------------------------------|
E|--10h12-----------------------------x-x-x-x----------------------------------------------|
Tap to rate this tab
 
# A B C D E F G H I J K L M N O P Q R S T U V W X Y Z