Song name
# A B C D E F G H I J K L M N O P Q R S T U V W X Y Z

Foo Fighters - Stranger Things Have Happened tab

Artist: Foo Fighters
Song: Stranger Things Have Happened
Album: Echoes, Silence, Patience

Took me a while to learn this solo, mainly due to the fact there were no good tabs
online. But, this is what I've learnt from watching videos, testing it out and playing along
to the song itself. Hope you find it helpful!

S-Slide
H-Hammer on
B-Bend


SOLO: PART 1

e|-------------------------------9--9--12-12-9-------7---7-7-7--7--7---7--7-7---|
B|--12-12-12-12-12-12------9s10--10-10-10-10-10------7---9-9-10-10-9---7--9-9---|
G|--11-11-11-14-14-11------10s11-11-11-11-11-11----------9-9-9--9--9---9--9-9---|
D|---------------------14-------------------------------------------------------|
A|------------------------------------------------------------------------------|
E|------------------------------------------------------------------------------|



SOLO: PART 2

e|--10-10-10-12-12-10-----12-12-12-14-14-12-----12-12-12-14-14-12-12-12-12-12---|
B|--12-12-12-12-12-12-----10-10-10-10-10-10-----12-12-12-12-12-12-15-12-15-12---|
G|--11-11-11-11-11-11-----11-11-11-11-11-11-----13-13-13-13-13-13-13-13-13-13---|
D|------------------------------------------------------------------------------|
A|------------------------------------------------------------------------------|
E|------------------------------------------------------------------------------|


SOLO: PART 3

e|-------------------------------7----------------------------------------------|
B|--9s10--10-10-10-10---7----7---7----------------------------------------------|
G|--10s11-11-11-11-11-9-7-9--7-9-7-9-7------------------------------------------|
D|-------------------------------------9-7---7h9-9-7-9-7------------------------|
A|-----------------------------------------9-------------9-7-5-7----------------|
E|------------------------------------------------------------------------------|

SOLO: PART 4

e|--10-7------7-------------------------------------------------------------------------------------|
B|-------10-7---10-7---7----------------------------------------------------------------------------|
G|-------------------9---9-7---9-7------------------------------------------------------------------|
D|---------------------------9-----9-7-9-9-7---7------------------------4-6-7-6-4-4s9--9-9-9-9-9-9-9|
A|-------------------------------------------9---9-7-5-7-7b8---5---5h7------------------------------|
E|---------------------------------------------------------------7----------------------------------|
Tap to rate this tab
 
# A B C D E F G H I J K L M N O P Q R S T U V W X Y Z