Song name
# A B C D E F G H I J K L M N O P Q R S T U V W X Y Z

For The Fallen Dreams - Fist Fight tab

Hi

Alright so I'm not 100% sure on this but it sounds
right on my end.

Drop A# Tuning
A# F A# D# G C

|------------------------------------------|
|------------------------------------------|
|------------------------------------------|
|------------------------------------------|   Repeat As Needed
|------------------------------------------|
|----12-12-12-12-12-12-12-12-12-12-10-10---|

|----------------|
|----------------|
|----------------|
|----0---8---5---|   Repeat As Needed
|----0---8---5---|
|----0---8---5---|

(In Background, Trem Picking)
|-----18--17-----------|
|-------------15--18---|
|----------------------|
|----------------------|   Repeat As Needed
|----------------------|
|----------------------|

BACK TO TOP

then,
|---------------------------|
|---------------------------|
|---------------------------|
|---0-0-0-0---0---0-0-0-0---|
|---0-0-0-0---0---0-0-0-0---|
|---0-0-0-0---0---0-0-0-0---|

|----------------|
|----------------|
|---3~/11~/10----|
|---x--x---x-----|
|---5~/13~/12~---|
|----------------|

|--------------------------|
|--------------------------|
|--------------------------|
|--------------------------|
|---0-0---0-1-1-0-0--0-0---|
|---0-0---0-1-1-0-0--0-0---|

|--------------|
|--------------|
|---3~/5~/6~---|
|---x--x--x----|
|---5~/7~/8~---|
|--------------|

|---------------------|
|---------------------|
|---------------------|
|---------------------|
|---0-0---0-0-1-0-0---|
|---0-0---0-0-1-0-0---|

Repeat Earlier Stuff

|-------------------------------|
|-------------------------------|
|-------------------------------|
|---0-0-0-0----0-0-0-0-0-0------|
|---0-0-0-0----0-0-0-0-0-0------|
|---1-1-1-1----1-1-1-1-1-1------|

Repeat Earlier Stuff

|-----------------------------------------------|
|-----------------------------------------------|
|-----------------------------------------------|
|---0-0-0-0---0---0-0-0-0---0-0-0-0---0---0-0---|
|---0-0-0-0---0---0-0-0-0---0-0-0-0---0---0-0---|
|---0-0-0-0---0---0-0-0-0---0-0-0-0---0---0-0---|

|---------------------------------------------|
|---------------------------------------------|
|---------------------------------------------|
|---0-0---0---0-0-0-0---0-0---0---0-0---0-0---|
|---0-0---0---0-0-0-0---0-0---0---0-0---0-0---|
|---0-0---0---0-0-0-0---0-0---0---0-0---0-0---|

|-----------------------------------------------|
|-----------------------------------------------|
|-----------------------------------------------|
|---0-0-0---0---0-0-0-0---0-0-0---0---0-0-0-0---|
|---0-0-0---0---0-0-0-0---0-0-0---0---0-0-0-0---|
|---0-0-0---0---0-0-0-0---0-0-0---0---0-0-0-0---|

|-----------------------------------------|
|-----------------------------------------|
|-----------------------------------------|
|---0-0---0---0-0-0-0---0-0-0-0-0---0-0---|
|---0-0---0---0-0-0-0---0-0-0-0-0---0-0---|
|---0-0---0---0-0-0-0---0-0-0-0-0---0-0---|


Thanks For Looking!

Please Rate/Comment
Tap to rate this tab
# A B C D E F G H I J K L M N O P Q R S T U V W X Y Z