Song name
# A B C D E F G H I J K L M N O P Q R S T U V W X Y Z

For Today - Intro tab

-------------------------------------------------------------------------------
			     Intro - For Today
-------------------------------------------------------------------------------
Tabbed by:GuitarJack94
Email:xxjack0fspadesxx@yahoo.com

Note: This song is better played in Drop C but the request is for Drop D so I'll do my best.

Tuning:Drop D [D A d G B e]


Guitar 1:

e|-----6/8-3--------------------------6/8-3---------/11p10-------/15---------|
B|-3h4-------4-3h4p3--------------3h4-------4-3h4p3-------11--------16-15----|
G|-------------------5-3h5p3---------------------------------12--------------|
D|---------------------------------------------------------------------------|
A|---------------------------6-----------------------------------------------|
E|---------------------------------------------------------------------------|

e|-----6/8-3-----------------------------------------------------------------|
B|-3h4-------4-3h4p3--------------3h4-6/8-6-4\3h4-1--------------------------|
G|-------------------5-3h5p3-------------------------------------------------|
D|---------------------------------------------------------------------------|
A|---------------------------6-----------------------------------------------|
E|---------------------------------------------------------------------------|

^^^^^^^^^^^^^^^^^^DONE^THREE^TIMES^^^^^^^^^^^^^^^^^^^^^^^^^^^^^^^^^^^^^^^^^^^^

Guitar 2: Use the octave C for lack of low C on open stings...

e|---------------------------------------------------------------------------|
B|---------------------------------------------------------------------------|
G|---------------------------------------------------------------------------|
D|-10------------------------------10--10------------------------------------|
A|-10------------------------------10--10------------------------------------|
E|-10------------------------------10--10------------------------------------|
                                   .   .

^^^^^^^^^^^^^^DONE^2^TIMES^^^^^^^^^^^^^^^^^^^^^^^^^^^^^^^^^^^^^^^^^^^^^^^^^^^^

e|---------------------------------------------------------------------------|
B|---------------------------------------------------------------------------|
G|---------------------------------------------------------------------------|
D|-10-----10-10---10-10---10-10-----10--10-----10-10---10-10---10-10---------|
A|-10-----10-10---10-10---10-10-----10--10-----10-10---10-10---10-10---------|
E|-10-----10-10---10-10---10-10-----10--10-----10-10---10-10---10-10---------|
          .  .    .  .    .  .      .   .      .  .    .  .    .  .

^^^^^^^^^^^^^^DONE^5^TIMES^^^^^^^^^^^^^^^^^^^^^^^^^^^^^^^^^^^^^^^^^^^^^^^^^^^^

Both Guitars:

e|---------------------------------------------------------------------------|
B|---------------------------------------------------------------------------|
G|---------------------------------------------------------------------------|
D|-10-----10-10---10-10---10-10-----10--10-----10-10---10-10---10-10---------|
A|-10-----10-10---10-10---10-10-----10--10-----10-10---10-10---10-10---------|
E|-10-----10-10---10-10---10-10-----10--10-----10-10---10-10---10-10---------|
          .  .    .  .    .  .      .   .      .  .    .  .    .  .
                                                              
e|---------------------------------------------------------------------------|
B|---------------------------------------------------------------------------|
G|---------------------------------------------------------------------------|
D|-10-----10-10---10-10---10-10-----10--10-----10-10---10-10---10-10--10-----|
A|-10-----10-10---10-10---10-10-----10--10-----10-10---10-10---10-10--10-----|
E|-10-----10-10---10-10---10-10-----10--10-----10-10---10-10---10-10--10-----|
          .  .    .  .    .  .      .   .      .  .    .  .    .  .
                                                                     ^^Hold^^^

************************************

| .   palm mute
| /   slide up
| \   slide down
| h   hammer-on
| p   pull-off
| ~   vibrato
| +   harmonic
| x   Mute note
| b   Bend
| pb  Pre-bend
| br  Bend release
| pbr Pre-bend release
| brb Bend release bend

************************************
Tap to rate this tab
 
# A B C D E F G H I J K L M N O P Q R S T U V W X Y Z