Forgive Durden - Cue The Sun tab

Hey this is my first tab. I tried to figure it out at the video on youtube where he 
it live so go onto it to get the rhythm of strums, timing, etc 
This is NOT 100% accurate but it would be awesome if someone could edit it and repost.

Ps I'm pretty sure I made some of it up :P


Cue the Sun by Forgive Durden
Verse:
   It starts with a canvas		A starchy, blinding white. Then comes
E-----------------|-----------------|-----------------|-----------------|
B-----------------|-5---------------|-5---------------|-3---------------|
G-5---------------|-5---------------|-6---------------|-4---------------|
D-5---------------|-3---------------|-7---------------|-5---------------|
A-3---------------|-3---------------|-----------------|-----------------|
E-----------------|-----------------|-----------------|-----------------|

The flash of illumination		And the tools to record the plight.
E-----------------|-----------------|-----------------|-----------------|
B-----------------|-5---------------|-5---------------|-3---------------|
G-5---------------|-5---------------|-6---------------|-4---------------|
D-5---------------|-3---------------|-7---------------|-5---------------|
A-3---------------|-3---------------|-----------------|-----------------|
E-----------------|-----------------|-----------------|-----------------|

So I begin drowning the surface	With a swamp of acrylic swirls.
E-----------------|-----------------|-----------------|-----------------|
B-----------------|-5---------------|-5---------------|-3---------------|
G-5---------------|-5---------------|-6---------------|-4---------------|
D-5---------------|-3---------------|-7---------------|-5---------------|
A-3---------------|-3---------------|-----------------|-----------------|
E-----------------|-----------------|-----------------|-----------------|

I'll get it right this time.		  This time it will last.
E-----------------|-----------------|-----------------|-----------------|
B-----------------|-5---------------|-5---------------|-3---------------|
G-5---------------|-5---------------|-6---------------|-4---------------|
D-5---------------|-3---------------|-7---------------|-5---------------|
A-3---------------|-3---------------|-----------------|-----------------|
E-----------------|-----------------|-----------------|-----------------|

Chorus:
Look at the world I've created.	Watch it as it turns like a top.
E-----------------|-----------------|-----------------|-----------------|
B-1---------------|-1---------------|-1---------------|-1---------------|
G-0---------------|-2---------------|-0---------------|-2---------------|
D-2---------------|-0---------------|-2---------------|-0---------------|
A-3---------------|-3---------------|-3---------------|-3---------------|
E-----------------|-----------------|-----------------|-----------------|

From the oceans…	To the clouds… It's more than you could ever…
E-----------------|-----------------|--------3--------|-----------------|
B-1---------------|-1---------------|-1------3--------|-7---------------|
G-0---------------|-2---------------|-2------0--------|-7---------------|
D-2---------------|-0---------------|-2------0--------|-7---------------|
A-3---------------|-3---------------|-0------2--------|-5---------------|
E-----------------|-----------------|--------3--------|-----------------|

It starts with a canvas
A starchy, blinding white.
Then comes the flash of illumination
And the tools to record the plight.

So I begin drowning the surface
With a swamp of acrylic swirls.
I'll get it right this time.
This time it will last.

Look at the world I've created.
Watch it as it turns like a top.
From the oceans and tides
To the clouds and blue skies.
It's more than you could ever
Dream to afford.

It ends with a loose thread
And a curious hand,
Like a boy who stumbles upon
His father's gun.

It's housed in a sock drawer
Next to cigarettes and cheap porn.
He loads the chamber with
One destined shot.
His father always regrets
He left the safety off.

Look at the world I've created.
Watch it as it turns like a top.
From the oceans and tides
To the clouds and blue skies.
It's more than you could ever
Dream to afford.

Look at the world I've created.
Watch it as it turns like a top.
From the malls and estates
To the smoke stacks and freeways.
It's much more than you could afford.
You've wasted this gift
Of beauty and science
And now my voice won't be ignored.
I'll pull back the blinds
And open all your eyes.
Let the sun drown you all.
Tap to rate this tab
 
# A B C D E F G H I J K L M N O P Q R S T U V W X Y Z