Song name
# A B C D E F G H I J K L M N O P Q R S T U V W X Y Z

Four Year Strong - It Must Really Suck To Be Four Year Strong Right Now tab

-------------------------------------------------------------------------------
                             It Must Really Suck to Be Four Year Strong Right Now
- Four Year Strong
-------------------------------------------------------------------------------
Tabbed by: ADTR92
E-mail: Deathcorefan1985@gmail.com

Tuning: Drop D or D standard
I like to play it in drop D but FYS tuning is D standard usually.
I'm going to tab both guitars separately in Drop D.
*Unfortunately, the palm mutes wouldn't sync up with the appropriate notes, so sadly
you will have to listen and figure that out for yourself :(


Intro Dan (Guitar 1)
e------------------------------------------------------------|
B------------------------------------------------------------|
G------------------------------------------------------------|
D------------------------------------------------------------|
A-------------------------------------------------------<5>|-|
D-0000-11h12-00-11h12-0000-11h12-00-11h12-00000000-----------|


e--------------------------------------------------------|
B--------------------------------------------------------|
G--------------------------------------------------------|
D--------------------------------------------------------|
A--------------------------------------------------------|
D-0000-11h12-00-11h12-0000-11h12-00-11h12-0000-2-5-4sb---|


e-----------------------------------------------------------|
B-----------------------------------------------------------|
G-----------------------------------------------------------|
D-----------------------------------------------------------|
A------------------------------------------------7-10-9-----|
D-0000-11h12-00-11h12-0000-11h12-00-11h12-0000---------9----|



e--------------------------------------------------------|
B--------------------------------------------------------|
G--------------------------------------------------------|
D--------------------------------------------------------|
A--------------------------------------------------------|
D-0000-11h12-00-11h12-0000-11h12-00-11h12-0000-2-5-4sb---|


e--------------------------------------------------------------|
B--------------------------------------------------------------|
G--------------------------------------------------------------|
D--------------------------------------------------------------|
A------------------------------------------------7-10-9--------|
D-0000-11h12-00-11h12-0000-11h12-00-11h12-0000----------9------|



e----------------------------------|
B----------------------------------| I'm not to sure on this part
G----------------------------------|
D----------------------------------|
A---------------~5----4-5-<7>------|
D-2-5-4-2-5-4-------5--------------|


e----------------------------------------------------|
B----------------------------------------------------|
G----------------------------------------------------|
D---555-0~-----5-5-5-------9-9-9-7-7-7-7-9-7-5-(4x---|
A---555-0~-(2x)------5-5-5---------------------------|
D---555-0~-------------------------------------------|

e----------------|
B----------------|
G----------------| But on the last time end with
D-7-7-7-5-5-5----|
A----------------|
D----------------|


Chorus 1
e-----------------------------------------------|
B-----------------------------------------------|
G-----------------------------------------------|
D-0-0----55555----0---77777-99999999-77777777---|
A-0-0-00-55555-00-0---77777-99999999-77777777---|
D-0-0-00-55555-00-0-0-77777-99999999-77777777---|

e-----------------------------------------------|
B-----------------------------------------------|
G-----------------------------------------------|
D-55----00000---------77777-99999999-77777777---|
A-55-00-00000---555---77777-99999999-77777777---|
D-55-00-00000---555-0-77777-99999999-77777777---|

-'Don't regret it if it hasn't happened yet..

e-------------------------------------------------------|
B-------------------------------------------------------|
G------------------------44-4---------------------------|
D--xxxx---55-555-5-00-0--44-4--55-555-5-99-9-7----------|
A--xxxx---55-555-5-00-0--22-2--55-555-5-99-9-7----------|
D--xxxx---55-555-5-00-0--------55-555-5-99-9-7-77777----|
 -'So LET'S GO!...'

e|------------------------------------------------------------------|
B|------------------------------------------------------------------|
G|------------------------------------------------------------------|
D|--5-5--5-5-5---5-0-0--0-7-7--7--7-7-7-7-7-7-7-7-------------------|
A|--5-5--5-5-5---5-0-0--0-7-7--7--7-7-7-7-7-7-7-7-------------------|
D|--5-5--5-5-5---5-0-0--0-7-7--7--7-7-7-7-7-7-7-7-------------------|

  Here's the brief breakdown part
e|-----------------------------------------------------------------------------------|
B|-----------------------------------------------------------------------------------|
G|------------------------------on the last time end with 12 p.m down the neck-------|
D|-----------------------------------------------------------------------------------|
A|--0000-0--0000-0---00-00-000-0-0000---------00-00-00-------------------------------|
D|--0000-0--0000-0---00-00-000-0-0000---------00-00-00-12//--------------------------|


Play this at the end of chorus 2
e|-----------------------------------------------------------------------------|
B|-----------------------------------------------------------------------------|
G|-----------------------------------------------------------------------------|
D|-----------------------------------------------------------------------------|
A|--5-5-5-5--9-9-9-9-9-9-9-9---------------------------------------------------|
D|--4-4-4-4--8-8-8-8-8-8-8-8---------------------------------------------------|

BREAKDOWN
e|-----------------------------------------------------------------------------|
B|-----------------------------------------------------------------------------|
G|-----------------------------------------------------------------------------|
D|----------------------------(Dan)-(Alan)-------------------------------------|
A|--0000-00-0000-00-00--(4x)--00--00-------------------------------------------|
D|--0000-00-0000-00-00--------00--00-------------------------------------------|


 Dan is basically playing the intro during the breakdown
e|-----------------------------------------------------------------------------|
B|-----------------------------------------------------------------------------|
G------------------------------------------------------------------------------|(4x)
D|-----------------------------------------------------------------------------|
A|-----------------------------------------------------------------------------|
D|---0000--11h12--00--11h12--0000--11h12--00--11h12--000000000000--------------|


e|-----------------------------------|
B|-----------------------------------|The last chorus ends with this
G|-----------------------------------|
D|--5-5-5---9-------77---------------|
A|--5-5-5---9-------77---------------|
D|--5-5-5-9-9-7777- 77---------------|

Final part of the song
e|-----------------------------------------------------------------------------|
B|-----------------------------------------------------------------------------|
G|-----------------------------------------------------------------------------|
D|--5-0-9-7---77~--------------------------------------------------------------|
A|--5-0-9-7---77~--(3x)---0000-00-0000-00-0~-----------------------------------|
D|--5-0-9-7-7-77~--------0000-00-0000-00-0~------------------------------------|



Intro Alan (Guitar 2)
e|---------------------------------------|
B|---------------------------------------|
G|---------------------------------------|
D|---------------------------------------|
A|--0000-00-0000-00-00-------------------|
D|--0000-00-0000-00-00-------------------|

e|-----------------------------------------------------------------------------|
B|-----------------------------------------------------------------------------|
G|-----------------------------------------------------------------------------|
D|-----------------------------------------------------------------------------|
A|-----------------------------------------------------------------------------|
D|--0000-11h12-00-11h12-0000-11h12-00-11h12-0000-2-5-4-0-----------------------|


e|-----------------------------------------------------------------------------|
B|-----------------------------------------------------------------------------|
G|-----------------------------------------------------------------------------|
D|-----------------------------------------------------------------------------|
A|-----------------------------------------------------------------------------|
D|--0000-11h12-00-11h12-0000-11h12-00-11h12-0000-2-5-4sb-----------------------|


e|-----------------------------------------------------------------------------|
B|-----------------------------------------------------------------------------|
G|-----------------------------------------------------------------------------|
D|-----------------------------------------------------------------------------|
A|-----------------------------------------------------------9--7--7~----------|
D|--0000-11h12-00-11h12-0000-11h12-00-11h12-0000-2-5-4-0------ -6~-------------|


Verse
e|---0000 11h12-00-11h12-0000-11h12-00-11h12-0000-11h12------------------------|l
B|-----------------------------------------------------------------------------|
G|---Do the appropriate amount of times----------------------------------------|
D|-----------------------------------------------------------------------------|
A|-----------------------------------------------------------------------------|
D|-----------------------------------------------------------------------------|


e|-0-0-10-0-10-0-0-10-0-10-0-0-10-0-10--(2x)-----------------------------------|
B|-----------------------------------------------------------------------------|
G|-----------------------------------------------------------------------------|
D|-----------------------------------------------------------------------------|
A|-----------------------------------------------------------------------------|
D|-----------------------------------------------------------------------------|
       Then do this
e|--0--0--0--0--0--0--0--0--0--0--0--0---0--0--0--0--------0--0--0--------------|
B|-12-12-12-10-10-10-15-15-15-14-14-14-15-15-14-14-------15 15-15---------------|
G|------------------------------------------------------------------------------|
D|------------------------------------------------------The next time end with--|
A|------------------------------------------------------------------------------|
D|------------------------------------------------------------------------------|

Pre Chorus
e|--0-0-0-0-0-0-0-0-0-0-0-0-0-0-0-0-0-0-0-0-0-0-0-0-0-0-0-0-0-0-0--------------|
B|--2-2-2-0-0-0-5-5-5-4-4-4-5-5-4-4-5-4-4-5-5-5-7-7-7-9-9-9-9-9-9--------------|
G|-----------------------------------------------------------------------------|
D|-----------------------------------------------------------------------------|
A|-----------------------------------------------------------------------------|
D|-----------------------------------------------------------------------------|

e|-----------------------------------------------------------------------------|
B|-5-5-5-/12-12-12-12-12-5-5-5-/10-10-10-10----9-9-9-9-17-17-17-17-16-16-16----|
D|-----------------------------------------------------------------------------|
A|------------------------------------------------2nd time end with ^----------|l
D------------------------------------------------------------------------------|

e|-----------------------------------------------------------------------------|
B|-9-9-9-9-12-12-12-12-7-7-7-7-9-9-9-9-(1x)------------------------------------|
G|-----------------------------------------------------------------------------|
D|-----------------------------------------------------------------------------|
A|-----------------------------------------------------------------------------|
D|-----------------------------------------------------------------------------|

End of chorus
e|----------12-12-12-12-------------------------------------------------------------|
B|----10h12-------------12--10h12-14-12-10-9-10-(3x)--------------------------------|
G|----------------------------------------------------------------------------------|
D|----------------------------------------------------------------------------------|

  Then here's the brief breakdown
e|--0-0-0-0-0-0-0-0----------0-0-0-0-0-0-0-0---0-0-0--------------------------|
B|--4-4-4-2-2-2-5-5-(4x)-then-4-4-4-2-2-2-5-5---4-4-4/------------------------|
G|----------------------------------------------------------------------------|
D|----------------------------------------------------------------------------|
A|----------------------------------------------------------------------------|
D|----------------------------------------------------------------------------|

2nd chorus ends different
e|----------12-12-12-12-12-9-9-9-9-7-7-7-7------------------------------|
B|----10-12-------------------------------------------------------------|
G|----------------------------------------------------------------------|
        BREAKDOWN
e|-----------------------------------------------------------------------------|
B|-----------------------------------------------------------------------------|
G|-----------------------------------------------------------------------------|
D|-----------------------------------------------------------------------------|
A|--0000-00-0000-00-00---(8x)--------------------------------------------------|
D|--0000-00-0000-00-00---------------------------------------------------------|


e|--0-0-0-0-----0-0-0-0-- 0-0-0-0-0-0-0-0--------------------------------------|
B|--2-0-5-4br-0-2-0-5-4br-2-0-5-4-0-4-5-7--------------------------------------|
G|-----------------------------------------------------------------------------|
D|-----------------------------------------------------------------------------|
A|-----------------------------------------0000-00-0000-00-0~------------------|
D|-----------------------------------------0000-00-0000-00-0~------------------|


Thank you and hope this helps :)
************************************

| /   slide up
| \   slide down
| h   hammer-on
| p   pull-off
| ~   vibrato
| +   harmonic
| x   Palm Mute
| b   Bend
| sb  Slight bend
| br  Bend release
| pbr Pre-bend release
| brb Bend release bend

************************************
Tap to rate this tab
# A B C D E F G H I J K L M N O P Q R S T U V W X Y Z