Song name
# A B C D E F G H I J K L M N O P Q R S T U V W X Y Z

Foy Vance - Be The Song tab

-------------------------------------------------------------------------------
                             Be The Song - Foy Vance
-------------------------------------------------------------------------------
Tabbed by: Lia Oxanne

This is how I play this song. I learnt it by ear and I can sing on it (though it might
be too high for some people to also sing). It's the first time I tab a song but I hope
it's good enough to get an idea. I also have the cover on youtube if you need to hear 
how it sounds.


Verse

e|---------0---0-----------------------------0------------------------------|
B|-1---3-------------------------------------------3-----1-----1------------|
G|----------------0-----0-----0-----0-----0-----0-----0-----0-----0-----0---|
D|--------------------------------------------------------------------------|
A|-------------3-----3-----3-----3-----3-----3-----3-----3-----0-----0-----0|
E|--------------------------------------------------------------------------|

e|-----------------------------0-----0-----------------------------0--------|
B|-----------------1-----3-----------------------------------------------3--|
G|--0-----0-----0-----0-----0-----0-----0-----0-----0-----0-----0-----0-----|
D|--------------------------------------------------------------------------|
A|-----0-----0-----0-----0-----0-----3-----3-----3-----3-----3-----3-----3--|
E|--------------------------------------------------------------------------|

e|---------------------------------------------------0-----0----------------|
B|---1-----1-----------------------------1-----3----------------------------|
G|0-----0-----0-----0-----0-----0-----0-----0-----0-----0-----0-----0-----0-|
D|--------------------------------------------------------------------------|
A|---3-----0-----0-----0-----0-----0-----0-----0-----0-----3-----3-----3----|
E|--------------------------------------------------------------------------|

e|-------------0-----------------------------------------------0------------|
B|-------------------3-----1-----3-----------------------------------3-----1|
G|----0-----0-----0-----0-----0-----0-----0-----0-----0-----0-----0-----0---|
D|--------------------------------------------------------------------------|
A|-3-----3-----3-----3-----3-----2-----2-----2-----2-----2-----2-----2-----2|
E|--------------------------------------------------------------------------|

e|-----------------------------------0--------------------------------------|
B|-----1-----------------------------------3-----1-----1--------------------|
G|--0-----0-----0-----0-----0-----0-----0-----0-----0-----0-----0-----0-----|
D|--------------------------------------------------------------------------|
A|-----0-----0-----0-----0-----0-----0-----0-----0-----3-----3-----3-----3--|
E|--------------------------------------------------------------------------|

e|---------0------------0-----|
B|----------------------------|
G|0-----0-----0-----0------0--|
D|----------------------------|
A|---3-----------3------------|
E|----------------------------|


Chorus

e|------0-----------0-----------0-----------0-----------3-----------3-------|
B|--------------------------------------------------------------------------|
G|---0-----0-----0-----0-----0-----0-----0-----0-----0-----0-----0-----0----|
D|--------------------------------------------------------------------------|
A|3-----------3-----------3-----------3-----------2-----------2-----------2-|
E|--------------------------------------------------------------------------|

e|----3-----------3-----------0-----------0-----------0-----------0---------|
B|--------------------------------------------------------------------------|
G|-0-----0-----0-----0-----0-----0-----0-----0-----0-----0-----0-----0-----0|
D|--------------------------------------------------------------------------|
A|----------2-----------3-----------3-----------3-----------3-----------2---|
E|--------------------------------------------------------------------------|

e|--3-----------3-----------3-----------3-----------0-----------0-----------|
B|--------------------------------------------------------------------------|
G|-----0-----0-----0-----0-----0-----0-----0-----0-----0-----0-----0-----0--|
D|--------------------------------------------------------------------------|
A|--------2-----------2-----------2-----------3-----------3-----------3-----|
E|--------------------------------------------------------------------------|

e|0-----------0-----------3-----------3-----3-----3-----3--|
B|---------------------------------------------------------|
G|---0-----0-----0-----0-----0-----0-----0-----------------|
D|---------------------------------------------------------|
A|------3-----------2-----------2--------------------------|
E|---------------------------------------------------------|
Tap to rate this tab
 
# A B C D E F G H I J K L M N O P Q R S T U V W X Y Z