Song name
# A B C D E F G H I J K L M N O P Q R S T U V W X Y Z

Foy Vance - Be The Song tab

This tab is played in half step down in one of his videos managed to figure out the 
first part of it still working on it so i should be finished with this in a week if time 
will permit but its a beautiful song and im 95% sure he plays it like this.

Half Step down (Standard) EADGBE
Reverb effect and let some notes ring where you feel it.
Finger style


Into:

e|----------------------------------------------------------------|
B|--3--3--3-3--------------------3---3---3--3---------------------|
G|--0--2--4-4--------------------4---2---0--0---------------------|
D|---------------0---0---0---0-------------------0---0---0---0----|
A|----------------------------------------------------------------|
E|-------------3---3---3---3---3---3---3--3----3---3---3---3---3--|

e|----------------------------------------------------------------|
B|--3--3--3--3-------------------3---3---3--3---------------------|
G|--0--2--4--4-------------------4---2---0--0---------------------|
D|---------------0---0---0---0-------------------0---0---0---0----|
A|----------------------------------------------------------------|
E|----3--3--3--0---0---0---0---0---0---0---0---0---0---0---0---0--|

(To Be Continued will finish throughout the week.)
Tap to rate this tab
# A B C D E F G H I J K L M N O P Q R S T U V W X Y Z