Song name
# A B C D E F G H I J K L M N O P Q R S T U V W X Y Z

Framing Hanley - Lollipop tab

Hey! Well This is My First Tab I've Written As of Yet. I've Tabbed This Using an 
Acoustic Guitar, So when I get an Electric (June 2010)
I'll Update it Accordingly. These Tabs Sound Pretty Decent on Acoustic So Tell Me 
If It Sounds Any Good On Electric :)
Any Modifications Then You Can Let me Know :D

Artist : Framing Hanley
  Song : Lollipop
Tuning : Drop D

Intro 

|1     &     2     &     3     &     4     &    |1     &     2     &     3     &     4     &    |
|										           She Said
|12-12-12-12-14-14-14-14-15-15-15-15-17-17-17-17-12-12-12-12-14-14-14-14-15-15-15-15-19-19-19-19|
|-----------------------------------------------------------------------------------------------|
|-----------------------------------------------------------------------------------------------|
|-----------------------------------------------------------------------------------------------|
|-----------------------------------------------------------------------------------------------|
|-----------------------------------------------------------------------------------------------|

|1     &     2     &     3     &     4     &    |1     &     2     &     3     &     4     &    |
 He's So     Sweet I     WannaLickTheWrapper			   So I Let her Lick the Wrapper And
|12-12-12-12-14-14-14-14-15-15-15-15-17-17-17-17-12-12-12-12-14-14-14-14-15-15-15-15-19-19-19-19|
|-----------------------------------------------------------------------------------------------|
|-----------------------------------------------------------------------------------------------|
|-----------------------------------------------------------------------------------------------|
|-----------------------------------------------------------------------------------------------|
|-----------------------------------------------------------------------------------------------|

|1     &     2     &     3     &     4     &    |1     &     2     &     3     &     4     &    | 
 Sshhhhheeeeeeeeeeeeeeeeeeeeeeeeeeeeeeeeeeeeeeeeeeeeeeeeeeeeeee		 She  Licks  Me  Like a
 12-12-12-12-14-14-14-14-15-15-15-15-17-17-17-17-12-12-12-12-14-14-14-14-15-15-15-15-19-19-19-19|
|-----------------------------------------------------------------------------------------------|
|-----------------------------------------------------------------------------------------------|
|-----------------------------------------------------------------------------------------------|
|-----------------------------------------------------------------------------------------------|
|-----------------------------------------------------------------------------------------------|

|1     &     2     &     3     &     4     &    |1     &     2     &     3     &     4     &    | 
 L o l l i p o p                          Like A Lollipop			     Short Wanna
|12-12-12-12-14-14-14-14-15-15-15-15-17-17-17-17-12-12-12-12-14-14-14-14-15-15-15-15-19-19-19-19|
|-----------------------------------------------------------------------------------------------|
|-----------------------------------------------------------------------------------------------|
|-----------------------------------------------------------------------------------------------|
|-----------------------------------------------------------------------------------------------|
|-----------------------------------------------------------------------------------------------|



Chorus

|1   &   2   &   3   &   4   &  |1   &   2   &   3   &   4   &   | 
 Thuggggggggg            BtlsNDa Cluuubbbbbb             Shorty Wanna
|----------------------------------------------------------------|
|----------------------------------------------------------------|
|----------------------------------------------------------------|
|0-0-0-0-0-0-0-0-0-0-0-0-0-0-0-0-10101010101010101010101010101010|
|0-0-0-0-0-0-0-0-0-0-0-0-0-0-0-0-10101010101010101010101010101010|
|0-0-0-0-0-0-0-0-0-0-0-0-0-0-0-0-10101010101010101010101010101010|

|1   &   2   &   3   &   4   &   |1 & 2 &   3 & 4 & |
 Hump    UNoILyk2Touch	 UrLvlyLdyLmps	        Short Wanna
|---------------------------------------------------|
|---------------------------------------------------|
|---------------------------------------------------|
|3-3-3-3-3-3-3-3-3-3-3-3-3-3-3-3--5xx-5x5x5-5xx-5x5x|
|3-3-3-3-3-3-3-3-3-3-3-3-3-3-3-3--5xx-5x5x5-5xx-5x5x|
|3-3-3-3-3-3-3-3-3-3-3-3-3-3-3-3--5xx-5x5x5-5xx-5x5x|

|1   &   2   &   3   &   4   &  |1   &   2   &   3   &   4   &   | 
 Thuggggggggg            BtlsNDa Cluuubbbbbb             Shorty Wanna
|----------------------------------------------------------------|
|----------------------------------------------------------------|
|----------------------------------------------------------------|
|0-0-0-0-0-0-0-0-0-0-0-0-0-0-0-0-10101010101010101010101010101010|
|0-0-0-0-0-0-0-0-0-0-0-0-0-0-0-0-10101010101010101010101010101010|
|0-0-0-0-0-0-0-0-0-0-0-0-0-0-0-0-10101010101010101010101010101010|

|1   &   2   &   3   &   4   &   |1 & 2 & 3 & 4 & |
 Hump    UNoILyk2Touch	 UrLvlyLdyLmps	      Cute little
|-------------------------------------------------|
|-------------------------------------------------|
|-------------------------------------------------|
|3-3-3-3-3-3-3-3-3-3-3-3-3-3-3-3--5xx-5x5x5xx-5x5x|
|3-3-3-3-3-3-3-3-3-3-3-3-3-3-3-3--5xx-5x5x5xx-5x5x|
|3-3-3-3-3-3-3-3-3-3-3-3-3-3-3-3--5xx-5x5x5xx-5x5x|



Verse 

|1     &     2     &     3     &     4     &    |1     &     2     &     3     &     4     &    |
 Mama Had a  swag  like  mine    She EvenWearher hairdownher back like   mine        I make her feel
|12-12-12-12-14-14-14-14-15-15-15-15-17-17-17-17-12-12-12-12-14-14-14-14-15-15-15-15-19-19-19-19|
|-----------------------------------------------------------------------------------------------|
|-----------------------------------------------------------------------------------------------|
|-----------------------------------------------------------------------------------------------|
|-----------------------------------------------------------------------------------------------|
|-----------------------------------------------------------------------------------------------|

|1     &     2     &     3     &     4     &    |1     &     2     &     3     &     4     &    |
 rightWenIts wrong like  lying and   man  she    never had a love  like  mine        Man Aint
|12-12-12-12-14-14-14-14-15-15-15-15-17-17-17-17-12-12-12-12-14-14-14-14-15-15-15-15-19-19-19-19|
|-----------------------------------------------------------------------------------------------|
|-----------------------------------------------------------------------------------------------|
|-----------------------------------------------------------------------------------------------|
|-----------------------------------------------------------------------------------------------|
|-----------------------------------------------------------------------------------------------|

|1     &     2     &     3     &     4     &    |1     &     2     &     3     &     4     &    | 
 NeverSeenAn Ass like    hers  That  ____  in my mouth  had  me lost for words I    told her back it
|12-12-12-12-14-14-14-14-15-15-15-15-17-17-17-17-12-12-12-12-14-14-14-14-15-15-15-15-19-19-19-19|
|-----------------------------------------------------------------------------------------------|
|-----------------------------------------------------------------------------------------------|
|-----------------------------------------------------------------------------------------------|
|-----------------------------------------------------------------------------------------------|
|-----------------------------------------------------------------------------------------------|

|1     &     2     &     3     &     4     &    |1     &     2     &     3     &     4     &    | 
 up like    'burp'      'burp'       IMadeDatAss jump like  'jurp'      'jurp'       Thats When
|12-12-12-12-14-14-14-14-15-15-15-15-17-17-17-17-12-12~-----------------------------------------|
|-----------------------------------------------------------------------------------------------|
|-----------------------------------------------------------------------------------------------|
|-----------------------------------------------------------------------------------------------|
|-----------------------------------------------------------------------------------------------|
|-----------------------------------------------------------------------------------------------|



Pre-Chorus

|1     &     2     &     3     &     4     & |1     &     2     &     3     &     4     & |
 Shhhheeeeeeeeeeeeeeeeeeeeeeeeeeeeeeeeeeeeeeeeeeeeeeeeeeeeee          Shelicks me like  a 
|16-------------------------------------------16------------------------------------------|
|---14-17-16-14-16-17-14-16-17-14-16-17-14-17----14-17-16-14-16-17-14-16-17-14-16-17-14-17|
|-----------------------------------------------------------------------------------------|
|-----------------------------------------------------------------------------------------|
|-----------------------------------------------------------------------------------------|
|-----------------------------------------------------------------------------------------|

|1     &     2     &     3     &     4     & |1     &     2     &     3     &     4     & |
 l o l l i   p o p                   Like a   l o l l i   p o p                   Shorty Wanna
|17-------------------------------------------16------------------------------------------|
|---14-17-16-14-16-17-14-16-17-14-16-17-14-17----14-17-16-14-16-17-14-16-17-14-16-17~-----|
|-----------------------------------------------------------------------------------------|
|-----------------------------------------------------------------------------------------|
|-----------------------------------------------------------------------------------------|
|-----------------------------------------------------------------------------------------|



Chorus 2

|1   &   2   &   3   &   4   &  |1   &   2   &   3   &   4   &   | 
 Thuggggggggg            BtlsNDa Cluuubbbbbb             Shorty Wanna
|----------------------------------------------------------------|
|----------------------------------------------------------------|
|----------------------------------------------------------------|
|0-0-0-0-0-0-0-0-0-0-0-0-0-0-0-0-10101010101010101010101010101010|
|0-0-0-0-0-0-0-0-0-0-0-0-0-0-0-0-10101010101010101010101010101010|
|0-0-0-0-0-0-0-0-0-0-0-0-0-0-0-0-10101010101010101010101010101010|

|1   &   2   &   3   &   4   &   |1 & 2 &   3 & 4 & |
 Hump    UNoILyk2Touch	 UrLvlyLdyLmps	        Short Wanna
|---------------------------------------------------|
|---------------------------------------------------|
|---------------------------------------------------|
|3-3-3-3-3-3-3-3-3-3-3-3-3-3-3-3--5xx-5x5x5-5xx-5x5x|
|3-3-3-3-3-3-3-3-3-3-3-3-3-3-3-3--5xx-5x5x5-5xx-5x5x|
|3-3-3-3-3-3-3-3-3-3-3-3-3-3-3-3--5xx-5x5x5-5xx-5x5x|

|1   &   2   &   3   &   4   &  |1   &   2   &   3   &   4   &   | 
 Thuggggggggg            BtlsNDa Cluuubbbbbb             Shorty Wanna
|----------------------------------------------------------------|
|----------------------------------------------------------------|
|----------------------------------------------------------------|
|0-0-0-0-0-0-0-0-0-0-0-0-0-0-0-0-10101010101010101010101010101010|
|0-0-0-0-0-0-0-0-0-0-0-0-0-0-0-0-10101010101010101010101010101010|
|0-0-0-0-0-0-0-0-0-0-0-0-0-0-0-0-10101010101010101010101010101010|

|1   &   2   &   3   &   4   &   |1 & 2 & 3 & 4 & |
 Hump    UNoILyk2Touch	 UrLvlyLdyLmps	        
|-------------------------------------------------|
|-------------------------------------------------|
|-------------------------------------------------|
|3-3-3-3-3-3-3-3-3-3-3-3-3-3-3-3--5xx-5x5x5xx-5x5x|
|3-3-3-3-3-3-3-3-3-3-3-3-3-3-3-3--5xx-5x5x5xx-5x5x|
|3-3-3-3-3-3-3-3-3-3-3-3-3-3-3-3--5xx-5x5x5xx-5x5x|



Interlude

|Guitar 1:
||1     &     2     &     3     &     4     &    |1     &     2     &     3     &     4     &    |
|				      Get on Yur Knees 				      
||12-12-12-12-14-14-14-14-15-15-15-15-17-17-17-17-12-12-12-12-14-14-14-14-15-15-15-15-19-19-19-19|
||-----------------------------------------------------------------------------------------------|
||-----------------------------------------------------------------------------------------------|
||-----------------------------------------------------------------------------------------------|
||-----------------------------------------------------------------------------------------------|
||-----------------------------------------------------------------------------------------------|
|
||1     &     2     &     3     &     4     &    |1     &     2     &     3     &     4     &    |
| 				      Get on Yur Knees 				            Call
||12-12-12-12-14-14-14-14-15-15-15-15-17-17-17-17-12-12-12-12-14-14-14-14-15-15-15-15-19-19-19-19|
||-----------------------------------------------------------------------------------------------|
||-----------------------------------------------------------------------------------------------|
||-----------------------------------------------------------------------------------------------|
||-----------------------------------------------------------------------------------------------|
||-----------------------------------------------------------------------------------------------|
|
|Guitar 2:
||1    &    2    &    3    &    4    &    |1    &    2    &    3    &    4    &    |
|			        Get On Yur Knees		        
||---------------------------------------------------------------------------------|
||---------------------------------------------------------------------------------|
||---------------------------------------------------------------------------------|
||---------------------------------------------------------------------------------|
||0----0---------0--0--0--0--0--0----------0----0---------0--0--0--0--0--0---------|
||0----0---------0--0--0--0--0--0----------0----0---------0--0--0--0--0--0---------|
|
||1    &    2    &    3    &    4    &    |1    &    2    &    3    &    4    &    |
|			        Get On Yur Knees		              Call
||---------------------------------------------------------------------------------|
||---------------------------------------------------------------------------------|
||---------------------------------------------------------------------------------|
||---------------------------------------------------------------------------------|
||0----0---------0--0--0--0--0--0----------0----0---------0--0--0--0--0--0---------|
||0----0---------0--0--0--0--0--0----------0----0---------0--0--0--0--0--0---------|



Interlude 2

|1     &     2     &     3     &     4     &     |
 Me    So    ICanMake It Juicy For   Ya    Call
|------------------1212--------------14-14-14-14-|
|------------------------------------------------|
|------------------------------------------------|
|------------------------------------------------|
|------------------------------------------------|
|------------------------------------------------|

|1     &     2     &     3     &     4     &     |
 Me    So    ICan Get It Juicy For   Ya    Call
|-----------------1212---------------------15-15-|
|------------------------------------------------|
|------------------------------------------------|
|------------------------------------------------|
|------------------------------------------------|
|------------------------------------------------|

|1     &     2     &     3     &     4     &     |
 Me    So    ICanMake It Juicy For   Ya    Call
|------------------1212--------------14-14-14-14-|
|------------------------------------------------|
|------------------------------------------------|
|------------------------------------------------|
|------------------------------------------------|
|------------------------------------------------|

|1     &     2     &     3     &     4     &     |
 Me    So    ICan Get It Juicy             Call
|12----12----14----14----15-15-15-15-17-17-17-17-|
|------------------------------------------------|
|------------------------------------------------|
|------------------------------------------------|
|------------------------------------------------|
|------------------------------------------------|



Interlude 3

|Guitar 1:
||1     &     2     &     3     &     4     &    |1     &     2     &     3     &     4     &    |
| Me       So ICanComeand Do it For   Ya    Call  Me       So ICanComeand Prove itFor Ya    Call
||12-12-12-12-14-14-14-14-15-15-15-15-17-17-17-17-12-12-12-12-14-14-14-14-15-15-15-15-19-19-19-19|
||-----------------------------------------------------------------------------------------------|
||-----------------------------------------------------------------------------------------------|
||-----------------------------------------------------------------------------------------------|
||-----------------------------------------------------------------------------------------------|
||-----------------------------------------------------------------------------------------------|
|
||1     &     2     &     3     &     4     &    |1     &     2     &     3     &     4     &    |
| Me       So ICanMake it Juicy For   Ya    Call  Me       So ICan Get it Juicy       Shorty Wanna
||12-12-12-12-14-14-14-14-15-15-15-15-17-17-17-17-12-12-12-12-14-14-14-14-15-15-15-15-19-19-19-19|
||-----------------------------------------------------------------------------------------------|
||-----------------------------------------------------------------------------------------------|
||-----------------------------------------------------------------------------------------------|
||-----------------------------------------------------------------------------------------------|
||-----------------------------------------------------------------------------------------------|
|
|
|Guitar 2:
||1     &     2     &     3     &     4     &    |1     &     2     &     3     &     4     &    |
| Me       So ICanComeand Do it For   Ya    Call  Me       So ICanComeand Prove itFor Ya    Call
||-----------------------------------------------------------------------------------------------|
||-----------------------------------------------------------------------------------------------|
||8--8--8--8--8--8--8--8--8--8--8--8--8--8--8--8--11-11-11-11-11-11-11-11-11-11-11-11-11-11-11-11|
||x--x--x--x--x--x--x--x--x--x--x--x--x--x--x--x--x--x--x--x--x--x--x--x--x--x--x--x--x--x--x--x-|
||6--6--6--6--6--6--6--6--6--6--6--6--6--6--6--6--9--9--9--9--9--9--9--9--9--9--9--9--9--9--9--9-|
||-----------------------------------------------------------------------------------------------|
|
||1     &     2     &     3     &     4     &    |1     &     2     &     3     &     4     &    |
| Me       So ICanMake it Juicy For   Ya    Call  Me       So ICan Get it Juicy       Shorty Wanna
||12-12-12-12-14-14-14-14-15-15-15-15-17-17-17-17-12-12-12-12-14-14-14-14-15-15-15-15-19-19-19-19|
||-----------------------------------------------------------------------------------------------|
||-----------------------------------------------------------------------------------------------|
||13-13-13-13-13-13-13-13-13-13-13-13-13-13-13-13-15-15-15-15-15-15-15-15-15-15-15-15-15-15-15-15|
||x--x--x--x--x--x--x--x--x--x--x--x--x--x--x--x--x--x--x--x--x--x--x--x--x--x--x--x--x--x--x--x-|
||11-11-11-11-11-11-11-11-11-11-11-11-11-11-11-11-13-13-13-13-13-13-13-13-13-13-13-13-13-13-13-13|
|-----------------------------------------------------------------------------------------------|



Chorus 3

Guitar 1:
||1   &   2   &   3   &   4   &  |1   &   2   &   3   &   4   &   | 
| Thuggggggggg            BtlsNDa Cluuubbbbbb             Shorty Wanna
||----------------------------------------------------------------|
||----------------------------------------------------------------|
||----------------------------------------------------------------|
||0-0-0-0-0-0-0-0-0-0-0-0-0-0-0-0-10101010101010101010101010101010|
||0-0-0-0-0-0-0-0-0-0-0-0-0-0-0-0-10101010101010101010101010101010|
||0-0-0-0-0-0-0-0-0-0-0-0-0-0-0-0-10101010101010101010101010101010|
|
||1   &   2   &   3   &   4   &   |1 & 2 &   3 & 4 & |
| Hump    UNoILyk2Touch	  UrLvlyLdyLmps	         Short Wanna
||---------------------------------------------------|
||---------------------------------------------------|
||---------------------------------------------------|
||3-3-3-3-3-3-3-3-3-3-3-3-3-3-3-3--5xx-5x5x5-5xx-5x5x|
||3-3-3-3-3-3-3-3-3-3-3-3-3-3-3-3--5xx-5x5x5-5xx-5x5x|
||3-3-3-3-3-3-3-3-3-3-3-3-3-3-3-3--5xx-5x5x5-5xx-5x5x|
|
||1   &   2   &   3   &   4   &  |1   &   2   &   3   &   4   &   | 
| Thuggggggggg            BtlsNDa Cluuubbbbbb             Shorty Wanna
||----------------------------------------------------------------|
||----------------------------------------------------------------|
||----------------------------------------------------------------|
||0-0-0-0-0-0-0-0-0-0-0-0-0-0-0-0-10101010101010101010101010101010|
||0-0-0-0-0-0-0-0-0-0-0-0-0-0-0-0-10101010101010101010101010101010|
||0-0-0-0-0-0-0-0-0-0-0-0-0-0-0-0-10101010101010101010101010101010|
|
||1   &   2   &   3   &   4   &   |1 & 2 & 3 & 4 & |
| Hump    UNoILyk2Touch	  UrLvlyLdyLmps	        
||-------------------------------------------------|
||-------------------------------------------------|
||-------------------------------------------------|
||3-3-3-3-3-3-3-3-3-3-3-3-3-3-3-3--5xx-5x5x5xx-5x5x|
||3-3-3-3-3-3-3-3-3-3-3-3-3-3-3-3--5xx-5x5x5xx-5x5x|
||3-3-3-3-3-3-3-3-3-3-3-3-3-3-3-3--5xx-5x5x5xx-5x5x|
|
|
|Guitar 2:
||1     &     2     &     3     &     4     &    |1     &     2     &     3     &     4     &    |
| Thuggggggggg                        BottlesIntheCluuubbbbbb                         Shorty Wanna
||12-12-12-12-14-14-14-14-15-15-15-15-17-17-17-17-12-12-12-12-14-14-14-14-15-15-15-15-19-19-19-19|
||-----------------------------------------------------------------------------------------------|
||-----------------------------------------------------------------------------------------------|
||-----------------------------------------------------------------------------------------------|
||-----------------------------------------------------------------------------------------------|
||-----------------------------------------------------------------------------------------------|
|
||1     &     2     &     3     &     4     &    |1     &     2     &     3     &     4     &    |
| Hump    You KnowIliketo Touch Your Lovely Lady  Lumps				      Shorty Wanna
||12-12-12-12-14-14-14-14-15-15-15-15-17-17-17-17-12-12-12-12-14-14-14-14-15-15-15-15-19-19-19-19|
||-----------------------------------------------------------------------------------------------|
||-----------------------------------------------------------------------------------------------|
||-----------------------------------------------------------------------------------------------|
||-----------------------------------------------------------------------------------------------|
||-----------------------------------------------------------------------------------------------|
|
||1     &     2     &     3     &     4     &    |1     &     2     &     3     &     4     &    |
| Thuggggggggg                        BottlesIntheCluuubbbbbb                         Shorty Wanna
||12-12-12-12-14-14-14-14-15-15-15-15-17-17-17-17-12-12-12-12-14-14-14-14-15-15-15-15-19-19-19-19|
||-----------------------------------------------------------------------------------------------|
||-----------------------------------------------------------------------------------------------|
||-----------------------------------------------------------------------------------------------|
||-----------------------------------------------------------------------------------------------|
||-----------------------------------------------------------------------------------------------|
|
||1     &     2     &     3     &     4     &    |1     &     2     &     3     &     4     &    |
| Hump You Know I like to Touch Your Lovely Lady  Lumps
||12-12-12-12-14-14-14-14-15-15-15-15-17-17-17-17-12-12-12-12-14-14-14-14-15-15-15-15-19-19-19-19|
||-----------------------------------------------------------------------------------------------|
||-----------------------------------------------------------------------------------------------|
||-----------------------------------------------------------------------------------------------|
||-----------------------------------------------------------------------------------------------|
||-----------------------------------------------------------------------------------------------|



Ending

||1    &    2    &    3    &    4    &    |
|			        Get On Your Knees		        
||----------------------------------------|
||----------------------------------------|
||----------------------------------------|
||----------------------------------------|
||0----0---------0--0--0--0--0--0---------|
||0----0---------0--0--0--0--0--0---------|

Tap to rate this tab
# A B C D E F G H I J K L M N O P Q R S T U V W X Y Z