Song name
# A B C D E F G H I J K L M N O P Q R S T U V W X Y Z

Franco - Better Days tab

better days franco

tab by:jbsabado
tab from http://www.youtube.com/watch?v=szzkM12y6dw

drop C#
C# G# C# F# A# D#

Intro (strumming)
D#------------------------------------|
A#------------------------------------|
F#---6------4-----7------7------------|
C#---7------5-----9------0------------|
G#---5------5-----9------0------------|
C#------------------------------------|


Intro pt.2
D#---------------------------------------------------|
A#---------------------------------------------------|
F#---------------------------------------------------|
C#---------------------------------------------------|
G#-----------4h7---------4h7------4------------------|
C#---0h4h7-0-----0h4h7-0-----0h4h7-------------------|


---------------------------------------------------|
---------------------------------------------------|
---------------------------------------------------|
--------------------------------7----5-------------|
-----------4h7---------4h7------7----5-------------|
---0h4h7-0-----0h4h7-0-----0h4--7----5-------------|

 verse (plucking)
Come hear Jah sound...
D#----2---------4-------2----------------5-4--------|
A#----2---------5-------3----------------7-5--------|
F#----2---------4-------2----------------6-4--------|
C#--------------------------------------------------|
G#--------------------------------------------------|
C#--------------------------------------------------|

.....Put love in you..     No matter.., we’ll be on our way.
.....Put love in me..
D#-4------------5------|   D#-4------------2------|
A#-5~-----------7------|   A#-5~-----------3------|
F#-4------------6------| - F#-4------------2------|
C#---------------------|   C#---------------------|
G#---------------------|   G#---------------------|
C#---------------------|   C#---------------------|

Chorus (strumming)

D#--------------------------------------------------|
A#--------------------------------------------------|
F#--------------------------------------------------|  Repeat intro pt.2
C#-5-7----5----9----0----7----5----9----0-----------|
G#-5-7----5----9----0----7----5----9----0-----------|
C#-5-7----5----9----0----7----5----9----0-----------|

solo
rhythm
(instrumental)
D#--------------------------------------------------|
A#--------------------------------------------------|
F#--------------------------------------------------|
C#-5/777---5/777-----9-/-7-/-5-555--444-------------|
G#-5/777---5/777-----9-/-7-/-5-555--444-------------|
C#-5/777---5/777-----9-/-7-/-5-555--444-------------|

lead
(instrumental)
D#--------------------------------------------------|
A#--------------------------------------------------|
F#-9\6----4/6-2----11\9----4/6-7\6-2----------------|
C#--------------------------------------------------|
G#--------------------------------------------------|
C#--------------------------------------------------|

The brightness and passives rays of Jah sun...
D#--------------------------------------------------|
A#--------------------------------------------------|
F#-2~------2/4------4/6------6/7--------------------|
C#--------------------------------------------------|
G#--------------------------------------------------|
C#--------------------------------------------------|

both
We’ll be un, under the sun
D#-------------------------------------------------|
A#-------------------------------------------------|
F#-------------------------------------------------|
C#-9----4----7------2-----0------------------------|
G#-9----4----7------2-----0------------------------|
C#-9----4----7------2-----0------------------------|

then

better days to come................

D#----------------------------------------------|
A#----------------------------------------------|
F#----------------------------------------------|
C#-9999-------000-------------------------------|
G#-9999-------000-------------------------------|
C#-9999-------000-------------------------------|

Repeat Chorus

Credits to: Marge Khan
Tap to rate this tab
# A B C D E F G H I J K L M N O P Q R S T U V W X Y Z