Song name
# A B C D E F G H I J K L M N O P Q R S T U V W X Y Z

Freaky Age - Masks tab

Freaky Age-Masks
Song: Masks
Album: (From the heart of) Glitter Lake
Artist: Freaky Age
Tuning: Standard
Tabbed By: Tim Van de Voorde

Gtr I (E A D G B E) - 'Acoustic guitar-Lenny’
Gtr II (E A D G B E) - ‘Electric guitar-Mathias'

Intro
Gtr I & Gtr II
E|-0-0-0-0-0-0---0-0-0-0-0-0-|
B|-1-1-1-1-1-1---1-1-1-1-1-1-|
G|-0-0-0-0-0-2---0-0-0-0-0-0-|  (3x)
D|-2-2-2-3-3-3---2-2-2-3-3-2-|
A|-3-3-3-3-3-3---3-3-3-3-3-3-|
E|---------------------------|

E|-0-0-0-0-0--1--|
B|-1-1-1-1-1--3--|
G|-0-0-0-0-0--2--|
D|-2-2-2-3-3--0--|
A|-3-3-3-3-3-----|
E|---------------|


“Oh, not tonight”
Gtr I
E|-5-5-5--3-3--1-1----------|
B|-5-5-5--3-3--1-1----------|
G|-5-5-5--4-4--2-2----------|
D|-7-7-7--5-5--3-3----------|
A|-7-7-7--5-5--3-3----------|
E|-5-5-5--3-3--1-1----------|

E|-5-5-5--3-3--1-1-0--------|
B|-5-5-5--3-3--1-1-0--------|
G|-5-5-5--4-4--2-2-1--------|
D|-7-7-7--5-5--3-3-2--------|
A|-7-7-7--5-5--3-3-2--------|
E|-5-5-5--3-3--1-1-0--------|

Gtr II
E|-12-12-12--10-10--8--8----|
B|-13-13-13--12-12--10-10---|
G|-14-14-14--12-12--10-10---|
D|-14-14-14--12-12--10-10---|
A|-12-12-12--10-10--8--8----|
E|--------------------------|

E|-12-12-12--10-10--8--8--7-|
B|-13-13-13--12-12--10-10-8-|
G|-14-14-14--12-12--10-10-9-|
D|-14-14-14--12-12--10-10-9-|
A|-12-12-12--10-10--8--8--7-|
E|--------------------------|



“This is not what I am, this is not what we are”
Gtr I
E|-5-5-5-5-5-5--7-7-7-7-7-7--5-5-5-5-5-5--3-3-3-3-3-3-    |-5-5-5-5-5-5--7-7-7-7-7-|
B|-6-6-6-6-6-6--8-8-8-8-8-8--5-5-5-5-5-5--5-5-5-5-5-5-    |-6-6-6-6-6-6--8-8-8-8-8-|
G|-5-5-5-5-5-5--7-7-7-7-7-7--5-5-5-5-5-5--5-5-5-5-5-5-(2x)|-5-5-5-5-5-5--7-7-7-7-7-|
D|----------------------------------------------------    |------------------------|
A|----------------------------------------------------    |------------------------|
E|----------------------------------------------------    |------------------------|


Gtr II
E|-5~------------7~------------5~------------3~-------    |-5~-----------7~--------|
B|-6~------------8~------------5~------------5~-------    |-6~-----------8~--------|
G|-5~------------7~------------5~------------5~-------(2x)|-5~-----------7~--------|
D|----------------------------------------------------    |------------------------|
A|----------------------------------------------------    |------------------------|
E|----------------------------------------------------    |------------------------|


“If only I could move along”
Gtr I & Gtr II
E|-0-0-0-0-0-0---0-0-0-0-0-0-|
B|-1-1-1-1-1-1---1-1-1-1-1-1-|
G|-0-0-0-0-0-2---0-0-0-0-0-0-|  (3x)
D|-2-2-2-3-3-3---2-2-2-3-3-2-|
A|-3-3-3-3-3-3---3-3-3-3-3-3-|
E|---------------------------|

E|-0-0-0-0-0--1--|
B|-1-1-1-1-1--3--|
G|-0-0-0-0-0--2--|
D|-2-2-2-3-3--0--|
A|-3-3-3-3-3-----|
E|---------------|

“Oh, not tonight”
Gtr I
E|-5-5-5--3-3--1-1----------|
B|-5-5-5--3-3--1-1----------|
G|-5-5-5--4-4--2-2----------|
D|-7-7-7--5-5--3-3----------|
A|-7-7-7--5-5--3-3----------|
E|-5-5-5--3-3--1-1----------|

E|-5-5-5--3-3--1-1-0--------|
B|-5-5-5--3-3--1-1-0--------|
G|-5-5-5--4-4--2-2-1--------|
D|-7-7-7--5-5--3-3-2--------|
A|-7-7-7--5-5--3-3-2--------|
E|-5-5-5--3-3--1-1-0--------|


Gtr II
E|-12-12-12--10-10--8--8----|
B|-13-13-13--12-12--10-10---|
G|-14-14-14--12-12--10-10---|
D|-14-14-14--12-12--10-10---|
A|-12-12-12--10-10--8--8----|
E|--------------------------|

E|-12-12-12--10-10--8--8--7-|
B|-13-13-13--12-12--10-10-8-|
G|-14-14-14--12-12--10-10-9-|
D|-14-14-14--12-12--10-10-9-|
A|-12-12-12--10-10--8--8--7-|
E|--------------------------|

“This is not what I am, this is not what we are”
Gtr I
E|-5-5-5-5-5-5--7-7-7-7-7-7--5-5-5-5-5-5--3-3-3-3-3-3-    |-5-5-5-5-5-5--7-7-7-7-7-|
B|-6-6-6-6-6-6--8-8-8-8-8-8--5-5-5-5-5-5--5-5-5-5-5-5-    |-6-6-6-6-6-6--8-8-8-8-8-|
G|-5-5-5-5-5-5--7-7-7-7-7-7--5-5-5-5-5-5--5-5-5-5-5-5-(2x)|-5-5-5-5-5-5--7-7-7-7-7-|
D|----------------------------------------------------    |------------------------|
A|----------------------------------------------------    |------------------------|
E|----------------------------------------------------    |------------------------|

Gtr II
E|-5~------------7~------------5~------------3~-------    |-5~-----------7~--------|
B|-6~------------8~------------5~------------5~-------    |-6~-----------8~--------|
G|-5~------------7~------------5~------------5~-------(2x)|-5~-----------7~--------|
D|----------------------------------------------------    |------------------------|
A|----------------------------------------------------    |------------------------|
E|----------------------------------------------------    |------------------------|

“Everyday on hold, it’s like I don’t know where to start”
Here both Gtr I & Gtr II play these chords, listen to get the rhythm:
Dm-G-C-Em-Am
Last time, you end on Dm.

“Oh, not tonight”
“Oh, not tonight”
Gtr I
E|-5-5-5--3-3--1-1----------|
B|-5-5-5--3-3--1-1----------|
G|-5-5-5--4-4--2-2----------| (3x)
D|-7-7-7--5-5--3-3----------|
A|-7-7-7--5-5--3-3----------|
E|-5-5-5--3-3--1-1----------|

E|-5-5-5--3-3--1-1-0--------|
B|-5-5-5--3-3--1-1-0--------|
G|-5-5-5--4-4--2-2-1--------|
D|-7-7-7--5-5--3-3-2--------|
A|-7-7-7--5-5--3-3-2--------|
E|-5-5-5--3-3--1-1-0--------|


Gtr II
E|-12-12-12--10-10--8--8----|
B|-13-13-13--12-12--10-10---|
G|-14-14-14--12-12--10-10---| (3x)
D|-14-14-14--12-12--10-10---|
A|-12-12-12--10-10--8--8----|
E|--------------------------|

E|-12-12-12--10-10--8--8--7-|
B|-13-13-13--12-12--10-10-8-|
G|-14-14-14--12-12--10-10-9-|
D|-14-14-14--12-12--10-10-9-|
A|-12-12-12--10-10--8--8--7-|
E|--------------------------|

SOLO part

“This is not what I am, this is not what we are”
Gtr I
E|-5-5-5-5-5-5--7-7-7-7-7-7--5-5-5-5-5-5--3-3-3-3-3-3-    |-5-5-5-5-5-5--7-7-7-7-7-|
B|-6-6-6-6-6-6--8-8-8-8-8-8--5-5-5-5-5-5--5-5-5-5-5-5-    |-6-6-6-6-6-6--8-8-8-8-8-|
G|-5-5-5-5-5-5--7-7-7-7-7-7--5-5-5-5-5-5--5-5-5-5-5-5-(2x)|-5-5-5-5-5-5--7-7-7-7-7-|
D|----------------------------------------------------    |------------------------|
A|----------------------------------------------------    |------------------------|
E|----------------------------------------------------    |------------------------|

Gtr II
E|-5~------------7~------------5~------------3~-------    |-5~-----------7~--------|
B|-6~------------8~------------5~------------5~-------    |-6~-----------8~--------|
G|-5~------------7~------------5~------------5~-------(2x)|-5~-----------7~--------|
D|----------------------------------------------------    |------------------------|
A|----------------------------------------------------    |------------------------|
E|----------------------------------------------------    |------------------------|

Gtr I & Gtr II
E|-0-0-0--0-0--0~---|
B|-1-1-1--1-1--1~---|
G|-0-0-0--0-0--0~---|
D|-2-2-2--3-3--2~---|
A|-3-3-3--3-3--3~---|
E|------------------|

Well there ya go, that's it.
Beautifully simple.



Tabbed by Tim Van de Voorde.
Tap to rate this tab
# A B C D E F G H I J K L M N O P Q R S T U V W X Y Z